  0
SECTION
  2
HEADER
  9
$ACADVER
  1
AC1015
  9
$ACADMAINTVER
 70
    20
  9
$DWGCODEPAGE
  3
ANSI_932
  9
$INSBASE
 10
0.0
 20
0.0
 30
0.0
  9
$EXTMIN
 10
12227.15900334154
 20
-5546.164613501805
 30
-0.0015258207003583
  9
$EXTMAX
 10
18428.89278296875
 20
2743.846670304753
 30
0.0000000349246037
  9
$LIMMIN
 10
0.0
 20
0.0
  9
$LIMMAX
 10
420.0
 20
297.0
  9
$ORTHOMODE
 70
     1
  9
$REGENMODE
 70
     1
  9
$FILLMODE
 70
     1
  9
$QTEXTMODE
 70
     0
  9
$MIRRTEXT
 70
     1
  9
$LTSCALE
 40
1.0
  9
$ATTMODE
 70
     1
  9
$TEXTSIZE
 40
2.5
  9
$TRACEWID
 40
1.0
  9
$TEXTSTYLE
  7
Standard
  9
$CLAYER
  8
1
  9
$CELTYPE
  6
ByLayer
  9
$CECOLOR
 62
   256
  9
$CELTSCALE
 40
1.0
  9
$DISPSILH
 70
     0
  9
$DIMSCALE
 40
1.0
  9
$DIMASZ
 40
12.5
  9
$DIMEXO
 40
0.0
  9
$DIMDLI
 40
50.0
  9
$DIMRND
 40
0.0
  9
$DIMDLE
 40
0.0
  9
$DIMEXE
 40
5.0
  9
$DIMTP
 40
0.0
  9
$DIMTM
 40
0.0
  9
$DIMTXT
 40
15.0
  9
$DIMCEN
 40
0.0
  9
$DIMTSZ
 40
0.0
  9
$DIMTOL
 70
     0
  9
$DIMLIM
 70
     0
  9
$DIMTIH
 70
     0
  9
$DIMTOH
 70
     0
  9
$DIMSE1
 70
     0
  9
$DIMSE2
 70
     0
  9
$DIMTAD
 70
     1
  9
$DIMZIN
 70
     8
  9
$DIMBLK
  1
Open
  9
$DIMASO
 70
     1
  9
$DIMSHO
 70
     1
  9
$DIMPOST
  1

  9
$DIMAPOST
  1

  9
$DIMALT
 70
     0
  9
$DIMALTD
 70
     3
  9
$DIMALTF
 40
0.03937007874016
  9
$DIMLFAC
 40
1.0
  9
$DIMTOFL
 70
     1
  9
$DIMTVP
 40
0.0
  9
$DIMTIX
 70
     0
  9
$DIMSOXD
 70
     0
  9
$DIMSAH
 70
     0
  9
$DIMBLK1
  1

  9
$DIMBLK2
  1

  9
$DIMSTYLE
  2
s5
  9
$DIMCLRD
 70
     0
  9
$DIMCLRE
 70
     0
  9
$DIMCLRT
 70
     0
  9
$DIMTFAC
 40
1.0
  9
$DIMGAP
 40
5.0
  9
$DIMJUST
 70
     0
  9
$DIMSD1
 70
     0
  9
$DIMSD2
 70
     0
  9
$DIMTOLJ
 70
     0
  9
$DIMTZIN
 70
     8
  9
$DIMALTZ
 70
     0
  9
$DIMALTTZ
 70
     0
  9
$DIMUPT
 70
     0
  9
$DIMDEC
 70
     2
  9
$DIMTDEC
 70
     2
  9
$DIMALTU
 70
     2
  9
$DIMALTTD
 70
     3
  9
$DIMTXSTY
  7
Standard
  9
$DIMAUNIT
 70
     0
  9
$DIMADEC
 70
     3
  9
$DIMALTRND
 40
0.0
  9
$DIMAZIN
 70
     2
  9
$DIMDSEP
 70
    46
  9
$DIMATFIT
 70
     3
  9
$DIMFRAC
 70
     0
  9
$DIMLDRBLK
  1
Open
  9
$DIMLUNIT
 70
     2
  9
$DIMLWD
 70
    -2
  9
$DIMLWE
 70
    -2
  9
$DIMTMOVE
 70
     0
  9
$LUNITS
 70
     2
  9
$LUPREC
 70
     4
  9
$SKETCHINC
 40
1.0
  9
$FILLETRAD
 40
0.0
  9
$AUNITS
 70
     0
  9
$AUPREC
 70
     0
  9
$MENU
  1
.
  9
$ELEVATION
 40
0.0
  9
$PELEVATION
 40
0.0
  9
$THICKNESS
 40
0.0
  9
$LIMCHECK
 70
     0
  9
$CHAMFERA
 40
2.0
  9
$CHAMFERB
 40
2.0
  9
$CHAMFERC
 40
20.0
  9
$CHAMFERD
 40
0.0
  9
$SKPOLY
 70
     0
  9
$TDCREATE
 40
2452172.781987847
  9
$TDUCREATE
 40
2452172.406987847
  9
$TDUPDATE
 40
2456067.375809815
  9
$TDUUPDATE
 40
2456067.000809815
  9
$TDINDWG
 40
3.7887795023
  9
$TDUSRTIMER
 40
3.7887671412
  9
$USRTIMER
 70
     1
  9
$ANGBASE
 50
0.0
  9
$ANGDIR
 70
     0
  9
$PDMODE
 70
     0
  9
$PDSIZE
 40
0.0
  9
$PLINEWID
 40
0.0
  9
$SPLFRAME
 70
     0
  9
$SPLINETYPE
 70
     6
  9
$SPLINESEGS
 70
    20
  9
$HANDSEED
  5
C76E
  9
$SURFTAB1
 70
     6
  9
$SURFTAB2
 70
     6
  9
$SURFTYPE
 70
     6
  9
$SURFU
 70
     6
  9
$SURFV
 70
     6
  9
$UCSBASE
  2

  9
$UCSNAME
  2

  9
$UCSORG
 10
0.0
 20
0.0
 30
0.0
  9
$UCSXDIR
 10
1.0
 20
0.0
 30
0.0
  9
$UCSYDIR
 10
0.0
 20
1.0
 30
0.0
  9
$UCSORTHOREF
  2

  9
$UCSORTHOVIEW
 70
     0
  9
$UCSORGTOP
 10
0.0
 20
0.0
 30
0.0
  9
$UCSORGBOTTOM
 10
0.0
 20
0.0
 30
0.0
  9
$UCSORGLEFT
 10
0.0
 20
0.0
 30
0.0
  9
$UCSORGRIGHT
 10
0.0
 20
0.0
 30
0.0
  9
$UCSORGFRONT
 10
0.0
 20
0.0
 30
0.0
  9
$UCSORGBACK
 10
0.0
 20
0.0
 30
0.0
  9
$PUCSBASE
  2

  9
$PUCSNAME
  2

  9
$PUCSORG
 10
0.0
 20
0.0
 30
0.0
  9
$PUCSXDIR
 10
1.0
 20
0.0
 30
0.0
  9
$PUCSYDIR
 10
0.0
 20
1.0
 30
0.0
  9
$PUCSORTHOREF
  2

  9
$PUCSORTHOVIEW
 70
     0
  9
$PUCSORGTOP
 10
0.0
 20
0.0
 30
0.0
  9
$PUCSORGBOTTOM
 10
0.0
 20
0.0
 30
0.0
  9
$PUCSORGLEFT
 10
0.0
 20
0.0
 30
0.0
  9
$PUCSORGRIGHT
 10
0.0
 20
0.0
 30
0.0
  9
$PUCSORGFRONT
 10
0.0
 20
0.0
 30
0.0
  9
$PUCSORGBACK
 10
0.0
 20
0.0
 30
0.0
  9
$USERI1
 70
     0
  9
$USERI2
 70
     0
  9
$USERI3
 70
     0
  9
$USERI4
 70
     0
  9
$USERI5
 70
     0
  9
$USERR1
 40
0.0
  9
$USERR2
 40
0.0
  9
$USERR3
 40
0.0
  9
$USERR4
 40
0.0
  9
$USERR5
 40
0.0
  9
$WORLDVIEW
 70
     1
  9
$SHADEDGE
 70
     3
  9
$SHADEDIF
 70
    70
  9
$TILEMODE
 70
     1
  9
$MAXACTVP
 70
    48
  9
$PINSBASE
 10
0.0
 20
0.0
 30
0.0
  9
$PLIMCHECK
 70
     0
  9
$PEXTMIN
 10
1.000000000000000E+20
 20
1.000000000000000E+20
 30
1.000000000000000E+20
  9
$PEXTMAX
 10
-1.000000000000000E+20
 20
-1.000000000000000E+20
 30
-1.000000000000000E+20
  9
$PLIMMIN
 10
0.0
 20
0.0
  9
$PLIMMAX
 10
420.0
 20
297.0
  9
$UNITMODE
 70
     0
  9
$VISRETAIN
 70
     1
  9
$PLINEGEN
 70
     0
  9
$PSLTSCALE
 70
     1
  9
$TREEDEPTH
 70
  3020
  9
$CMLSTYLE
  2
Standard
  9
$CMLJUST
 70
     0
  9
$CMLSCALE
 40
20.0
  9
$PROXYGRAPHICS
 70
     1
  9
$MEASUREMENT
 70
     1
  9
$CELWEIGHT
370
    -1
  9
$ENDCAPS
280
     0
  9
$JOINSTYLE
280
     0
  9
$LWDISPLAY
290
     0
  9
$INSUNITS
 70
     4
  9
$HYPERLINKBASE
  1

  9
$STYLESHEET
  1
NEC-MW2250全細線.CTB
  9
$XEDIT
290
     1
  9
$CEPSNTYPE
380
     0
  9
$PSTYLEMODE
290
     1
  9
$FINGERPRINTGUID
  2
{4CA2917F-DCE5-4B91-9890-1E1432485FA7}
  9
$VERSIONGUID
  2
{D421155A-0D48-4FB7-9CB1-CBC90BEE46F5}
  9
$EXTNAMES
290
     1
  9
$PSVPSCALE
 40
0.0
  9
$OLESTARTUP
290
     0
  0
ENDSEC
  0
SECTION
  2
CLASSES
  0
CLASS
  1
ACDBDICTIONARYWDFLT
  2
AcDbDictionaryWithDefault
  3
ObjectDBX Classes
 90
        0
280
     0
281
     0
  0
CLASS
  1
ACDBPLACEHOLDER
  2
AcDbPlaceHolder
  3
ObjectDBX Classes
 90
        0
280
     0
281
     0
  0
CLASS
  1
LAYOUT
  2
AcDbLayout
  3
ObjectDBX Classes
 90
        0
280
     0
281
     0
  0
CLASS
  1
DICTIONARYVAR
  2
AcDbDictionaryVar
  3
ObjectDBX Classes
 90
        0
280
     0
281
     0
  0
CLASS
  1
TABLESTYLE
  2
AcDbTableStyle
  3
ObjectDBX Classes
 90
     4095
280
     0
281
     0
  0
CLASS
  1
SORTENTSTABLE
  2
AcDbSortentsTable
  3
ObjectDBX Classes
 90
        0
280
     0
281
     0
  0
CLASS
  1
MATERIAL
  2
AcDbMaterial
  3
ObjectDBX Classes
 90
     1024
280
     0
281
     0
  0
CLASS
  1
VISUALSTYLE
  2
AcDbVisualStyle
  3
ObjectDBX Classes
 90
     4095
280
     0
281
     0
  0
ENDSEC
  0
SECTION
  2
TABLES
  0
TABLE
  2
VPORT
  5
8
330
0
100
AcDbSymbolTable
 70
     1
  0
VPORT
  5
C6DD
330
8
100
AcDbSymbolTableRecord
100
AcDbViewportTableRecord
  2
*Active
 70
     0
 10
0.0
 20
0.0
 11
1.0
 21
1.0
 12
15328.02589315514
 22
-1401.158971598526
 13
0.0
 23
0.0
 14
10.0
 24
10.0
 15
10.0
 25
10.0
 16
0.0
 26
0.0
 36
1.0
 17
0.0
 27
0.0
 37
0.0
 40
8353.05319471003
 41
1.486040609137055
 42
50.0
 43
0.0
 44
0.0
 50
0.0
 51
0.0
 71
     0
 72
  5000
 73
     1
 74
     3
 75
     0
 76
     0
 77
     0
 78
     0
281
     0
 65
     1
110
0.0
120
0.0
130
0.0
111
1.0
121
0.0
131
0.0
112
0.0
122
1.0
132
0.0
 79
     0
146
0.0
  0
ENDTAB
  0
TABLE
  2
LTYPE
  5
5
330
0
100
AcDbSymbolTable
 70
     4
  0
LTYPE
  5
14
330
5
100
AcDbSymbolTableRecord
100
AcDbLinetypeTableRecord
  2
ByBlock
 70
     0
  3

 72
    65
 73
     0
 40
0.0
  0
LTYPE
  5
15
330
5
100
AcDbSymbolTableRecord
100
AcDbLinetypeTableRecord
  2
ByLayer
 70
     0
  3

 72
    65
 73
     0
 40
0.0
  0
LTYPE
  5
16
330
5
100
AcDbSymbolTableRecord
100
AcDbLinetypeTableRecord
  2
Continuous
 70
     0
  3
Solid line
 72
    65
 73
     0
 40
0.0
  0
LTYPE
  5
1DE
330
5
100
AcDbSymbolTableRecord
100
AcDbLinetypeTableRecord
  2
HIDDEN
 70
     0
  3
Hidden __ __ __ __ __ __ __ __ __ __ __ __ __ _
 72
    65
 73
     2
 40
9.524999999999996
 49
6.349999999999997
 74
     0
 49
-3.174999999999998
 74
     0
  0
LTYPE
  5
DDA
330
5
100
AcDbSymbolTableRecord
100
AcDbLinetypeTableRecord
  2
PHANTOM
 70
     0
  3
Phantom ______  __  __  ______  __  __  ______
 72
    65
 73
     6
 40
63.5
 49
31.75
 74
     0
 49
-6.349999999999997
 74
     0
 49
6.349999999999997
 74
     0
 49
-6.349999999999997
 74
     0
 49
6.349999999999997
 74
     0
 49
-6.349999999999997
 74
     0
  0
LTYPE
  5
DDB
330
5
100
AcDbSymbolTableRecord
100
AcDbLinetypeTableRecord
  2
CENTER
 70
     0
  3
Center ____ _ ____ _ ____ _ ____ _ ____ _ ____
 72
    65
 73
     4
 40
50.8
 49
31.75
 74
     0
 49
-6.349999999999997
 74
     0
 49
6.349999999999997
 74
     0
 49
-6.349999999999997
 74
     0
  0
ENDTAB
  0
TABLE
  2
LAYER
  5
2
102
{ACAD_XDICTIONARY
360
C64D
102
}
330
0
100
AcDbSymbolTable
 70
     4
  0
LAYER
  5
10
330
2
100
AcDbSymbolTableRecord
100
AcDbLayerTableRecord
  2
0
 70
     0
 62
     7
  6
Continuous
370
    -3
390
F
  0
LAYER
  5
A95
330
2
100
AcDbSymbolTableRecord
100
AcDbLayerTableRecord
  2
skeleton
 70
     0
 62
     7
  6
Continuous
370
    -3
390
F
  0
LAYER
  5
DC0
330
2
100
AcDbSymbolTableRecord
100
AcDbLayerTableRecord
  2
Defpoints
 70
     0
 62
     7
  6
Continuous
290
     0
370
    -3
390
F
  0
LAYER
  5
8439
330
2
100
AcDbSymbolTableRecord
100
AcDbLayerTableRecord
  2
1
 70
     0
 62
     7
  6
Continuous
370
    -3
390
F
1001
AcAecLayerStandard
1000

1000

  0
ENDTAB
  0
TABLE
  2
STYLE
  5
3
330
0
100
AcDbSymbolTable
 70
     2
  0
STYLE
  5
11
330
3
100
AcDbSymbolTableRecord
100
AcDbTextStyleTableRecord
  2
Standard
 70
     0
 40
0.0
 41
1.0
 50
0.0
 71
     0
 42
2.5
  3
romans.shx
  4
extfont.shx
  0
STYLE
  5
DD9
330
3
100
AcDbSymbolTableRecord
100
AcDbTextStyleTableRecord
  2

 70
     1
 40
0.0
 41
1.0
 50
0.0
 71
     0
 42
2.5
  3
ltypeshp.shx
  4

  0
ENDTAB
  0
TABLE
  2
VIEW
  5
6
330
0
100
AcDbSymbolTable
 70
     0
  0
ENDTAB
  0
TABLE
  2
UCS
  5
7
330
0
100
AcDbSymbolTable
 70
     0
  0
ENDTAB
  0
TABLE
  2
APPID
  5
9
330
0
100
AcDbSymbolTable
 70
     4
  0
APPID
  5
12
330
9
100
AcDbSymbolTableRecord
100
AcDbRegAppTableRecord
  2
ACAD
 70
     0
  0
APPID
  5
DA7
330
9
100
AcDbSymbolTableRecord
100
AcDbRegAppTableRecord
  2
ACAD_DSTYLE_DIMTEXT_FILL
 70
     0
  0
APPID
  5
83A7
330
9
100
AcDbSymbolTableRecord
100
AcDbRegAppTableRecord
  2
ACAD_PSEXT
 70
     0
  0
APPID
  5
843A
330
9
100
AcDbSymbolTableRecord
100
AcDbRegAppTableRecord
  2
AcAecLayerStandard
 70
     0
  0
ENDTAB
  0
TABLE
  2
DIMSTYLE
  5
A
330
0
100
AcDbSymbolTable
 70
     6
100
AcDbDimStyleTable
 71
     6
340
2317
340
259B
340
2AB9
340
D95
340
D96
340
27
  0
DIMSTYLE
105
27
330
A
100
AcDbSymbolTableRecord
100
AcDbDimStyleTableRecord
  2
ISO-25
 70
     0
 41
2.5
 42
0.625
 43
3.75
 44
1.25
 73
     0
 74
     0
 77
     1
 78
     8
140
2.5
141
2.5
143
0.03937007874016
147
0.625
171
     3
172
     1
271
     2
272
     2
274
     3
283
     0
284
     8
340
11
  0
DIMSTYLE
105
D95
330
A
100
AcDbSymbolTableRecord
100
AcDbDimStyleTableRecord
  2
s10
 70
     0
 41
25.0
 42
0.0
 43
100.0
 44
10.0
 73
     0
 74
     0
 77
     1
 78
     8
 79
     2
140
30.0
141
0.0
143
0.03937007874016
147
10.0
171
     3
172
     1
179
     3
271
     2
272
     2
274
     3
283
     0
284
     8
340
11
341
D8F
342
D8F
  0
DIMSTYLE
105
D96
330
A
100
AcDbSymbolTableRecord
100
AcDbDimStyleTableRecord
  2
s20
 70
     0
 41
50.0
 42
0.0
 43
200.0
 44
20.0
 73
     0
 74
     0
 77
     1
 78
     8
 79
     2
140
60.0
141
0.0
143
0.03937007874016
147
20.0
171
     3
172
     1
179
     3
271
     3
272
     3
274
     3
283
     0
284
     8
340
11
341
D8F
342
D8F
  0
DIMSTYLE
105
2317
330
A
100
AcDbSymbolTableRecord
100
AcDbDimStyleTableRecord
  2
s5
 70
     0
 41
12.5
 42
0.0
 43
50.0
 44
5.0
 73
     0
 74
     0
 77
     1
 78
     8
 79
     2
140
15.0
141
0.0
143
0.03937007874016
147
5.0
171
     3
172
     1
179
     3
271
     2
272
     2
274
     3
283
     0
284
     8
340
11
341
D8F
342
D8F
  0
DIMSTYLE
105
259B
330
A
100
AcDbSymbolTableRecord
100
AcDbDimStyleTableRecord
  2
s2
 70
     0
 41
5.0
 42
0.0
 43
20.0
 44
2.0
 73
     0
 74
     0
 77
     1
 78
     8
 79
     2
140
6.0
141
0.0
143
0.03937007874016
147
2.0
171
     3
172
     1
179
     3
271
     2
272
     2
274
     3
283
     0
284
     8
340
11
341
D8F
342
D8F
  0
DIMSTYLE
105
2AB9
330
A
100
AcDbSymbolTableRecord
100
AcDbDimStyleTableRecord
  2
s1
 70
     0
 41
2.5
 42
0.0
 43
10.0
 44
1.0
 73
     0
 74
     0
 77
     1
 78
     8
 79
     2
140
3.0
141
0.0
143
0.03937007874016
147
1.0
171
     3
172
     1
179
     3
271
     2
272
     2
274
     3
283
     0
284
     8
340
11
341
D8F
342
D8F
  0
ENDTAB
  0
TABLE
  2
BLOCK_RECORD
  5
1
330
0
100
AcDbSymbolTable
 70
     2
  0
BLOCK_RECORD
  5
1F
102
{ACAD_XDICTIONARY
360
DF
102
}
330
1
100
AcDbSymbolTableRecord
100
AcDbBlockTableRecord
  2
*Model_Space
340
22
  0
BLOCK_RECORD
  5
1B
102
{ACAD_XDICTIONARY
360
E1
102
}
330
1
100
AcDbSymbolTableRecord
100
AcDbBlockTableRecord
  2
*Paper_Space
340
1E
  0
BLOCK_RECORD
  5
23
102
{ACAD_XDICTIONARY
360
E3
102
}
330
1
100
AcDbSymbolTableRecord
100
AcDbBlockTableRecord
  2
*Paper_Space0
340
26
  0
BLOCK_RECORD
  5
D8F
330
1
100
AcDbSymbolTableRecord
100
AcDbBlockTableRecord
  2
_Open
340
0
  0
ENDTAB
  0
ENDSEC
  0
SECTION
  2
BLOCKS
  0
BLOCK
  5
20
330
1F
100
AcDbEntity
  8
0
100
AcDbBlockBegin
  2
*Model_Space
 70
     0
 10
0.0
 20
0.0
 30
0.0
  3
*Model_Space
  1

  0
ENDBLK
  5
21
330
1F
100
AcDbEntity
  8
0
100
AcDbBlockEnd
  0
BLOCK
  5
1C
330
1B
100
AcDbEntity
 67
     1
  8
0
100
AcDbBlockBegin
  2
*Paper_Space
 70
     0
 10
0.0
 20
0.0
 30
0.0
  3
*Paper_Space
  1

  0
ENDBLK
  5
1D
330
1B
100
AcDbEntity
 67
     1
  8
0
100
AcDbBlockEnd
  0
BLOCK
  5
24
330
23
100
AcDbEntity
 67
     1
  8
0
100
AcDbBlockBegin
  2
*Paper_Space0
 70
     0
 10
0.0
 20
0.0
 30
0.0
  3
*Paper_Space0
  1

  0
ENDBLK
  5
25
330
23
100
AcDbEntity
 67
     1
  8
0
100
AcDbBlockEnd
  0
BLOCK
  5
D90
330
D8F
100
AcDbEntity
  8
0
100
AcDbBlockBegin
  2
_Open
 70
     0
 10
0.0
 20
0.0
 30
0.0
  3
_Open
  1

  0
LINE
  5
D91
330
D8F
100
AcDbEntity
  8
0
  6
ByBlock
 62
     0
370
    -2
100
AcDbLine
 10
-1.0
 20
0.1666666666666666
 30
0.0
 11
0.0
 21
0.0
 31
0.0
  0
LINE
  5
D92
330
D8F
100
AcDbEntity
  8
0
  6
ByBlock
 62
     0
370
    -2
100
AcDbLine
 10
-1.0
 20
-0.1666666666666666
 30
0.0
 11
0.0
 21
0.0
 31
0.0
  0
LINE
  5
D93
330
D8F
100
AcDbEntity
  8
0
  6
ByBlock
 62
     0
370
    -2
100
AcDbLine
 10
0.0
 20
0.0
 30
0.0
 11
-1.0
 21
0.0
 31
0.0
  0
ENDBLK
  5
D94
330
D8F
100
AcDbEntity
  8
0
100
AcDbBlockEnd
  0
ENDSEC
  0
SECTION
  2
ENTITIES
  0
LINE
  5
1B4
330
1F
100
AcDbEntity
  8
1
  6
HIDDEN
 48
0.5
100
AcDbLine
 10
12558.18571223989
 20
2372.517321746548
 30
0.0
 11
12578.1857122399
 21
2372.517321746548
 31
0.0
  0
LINE
  5
1F5
330
1F
100
AcDbEntity
  8
1
  6
HIDDEN
 48
0.5
100
AcDbLine
 10
13152.19468368066
 20
2374.717321746547
 30
0.0
 11
13172.19468368066
 21
2374.717321746549
 31
0.0
  0
LINE
  5
255
330
1F
100
AcDbEntity
  8
1
100
AcDbLine
 10
13807.83384332011
 20
2412.617321746548
 30
0.0
 11
13807.83384332011
 21
2314.617321746546
 31
0.0
  0
LINE
  5
25E
330
1F
100
AcDbEntity
  8
1
  6
HIDDEN
 48
0.5
100
AcDbLine
 10
13791.83384332011
 20
2377.467321746546
 30
0.0
 11
13813.83384332011
 21
2377.467321746547
 31
0.0
  0
LINE
  5
28A
330
1F
100
AcDbEntity
  8
1
100
AcDbLine
 10
14439.1868932918
 20
2425.117321746548
 30
0.0
 11
14439.1868932918
 21
2302.117321746548
 31
0.0
  0
LINE
  5
292
330
1F
100
AcDbEntity
  8
1
  6
HIDDEN
 48
0.5
100
AcDbLine
 10
14447.1868932918
 20
2380.867321746546
 30
0.0
 11
14423.1868932918
 21
2380.867321746547
 31
0.0
  0
LINE
  5
2B1
330
1F
100
AcDbEntity
  8
1
100
AcDbLine
 10
15119.59929565239
 20
2430.117321746548
 30
0.0
 11
15119.59929565239
 21
2297.117321746547
 31
0.0
  0
LINE
  5
2E7
330
1F
100
AcDbEntity
  8
1
100
AcDbLine
 10
15828.03540485587
 20
2432.617321746547
 30
0.0
 11
15828.03540485587
 21
2294.617321746548
 31
0.0
  0
LINE
  5
348
330
1F
100
AcDbEntity
  8
1
100
AcDbLine
 10
17274.59681070379
 20
2450.117321746548
 30
0.0
 11
17274.59681070379
 21
2277.117321746546
 31
0.0
  0
LINE
  5
37A
330
1F
100
AcDbEntity
  8
1
100
AcDbLine
 10
18102.07202643633
 20
2462.617321746548
 30
0.0
 11
18102.07202643633
 21
2264.617321746547
 31
0.0
  0
LINE
  5
421
330
1F
100
AcDbEntity
  8
1
100
AcDbLine
 10
13480.71670296303
 20
2049.821890976123
 30
0.0
 11
13480.71670296304
 21
1826.821890976123
 31
0.0
  0
LINE
  5
45B
330
1F
100
AcDbEntity
  8
1
100
AcDbLine
 10
14205.09236465124
 20
2072.321890976123
 30
0.0
 11
14205.09236465123
 21
1804.321890976123
 31
0.0
  0
LINE
  5
491
330
1F
100
AcDbEntity
  8
1
100
AcDbLine
 10
14979.42734419713
 20
2089.821890976124
 30
0.0
 11
14979.42734419713
 21
1786.821890976123
 31
0.0
  0
LINE
  5
4C7
330
1F
100
AcDbEntity
  8
1
100
AcDbLine
 10
16611.40137970335
 20
2112.321890976123
 30
0.0
 11
16611.40137970333
 21
1764.321890976123
 31
0.0
  0
LINE
  5
504
330
1F
100
AcDbEntity
  8
1
100
AcDbLine
 10
18290.3188423791
 20
2152.321890976124
 30
0.0
 11
18290.31884237909
 21
1724.321890976123
 31
0.0
  0
LINE
  5
543
330
1F
100
AcDbEntity
  8
1
100
AcDbLine
 10
12881.4817970498
 20
1437.619440937447
 30
0.0
 11
12881.4817970498
 21
959.6194409374465
 31
0.0
  0
LINE
  5
71F
330
1F
100
AcDbEntity
  8
1
100
AcDbLine
 10
12572.1857122399
 20
2319.61732174655
 30
0.0
 11
12572.1857122399
 21
2407.617321746547
 31
0.0
  0
LINE
  5
729
330
1F
100
AcDbEntity
  8
1
100
AcDbLine
 10
12571.1857122399
 20
2408.617321746547
 30
0.0
 11
12559.1857122399
 21
2408.617321746547
 31
0.0
  0
LINE
  5
744
330
1F
100
AcDbEntity
  8
1
100
AcDbLine
 10
13165.19468368066
 20
2411.117321746548
 30
0.0
 11
13153.19468368065
 21
2411.117321746547
 31
0.0
  0
LINE
  5
755
330
1F
100
AcDbEntity
  8
1
100
AcDbLine
 10
13806.83384332011
 20
2413.617321746548
 30
0.0
 11
13792.83384332011
 21
2413.617321746548
 31
0.0
  0
LINE
  5
766
330
1F
100
AcDbEntity
  8
1
100
AcDbLine
 10
14438.1868932918
 20
2426.117321746548
 30
0.0
 11
14424.1868932918
 21
2426.117321746547
 31
0.0
  0
LINE
  5
77E
330
1F
100
AcDbEntity
  8
1
100
AcDbLine
 10
15118.59929565239
 20
2431.117321746548
 30
0.0
 11
15103.59929565238
 21
2431.117321746548
 31
0.0
  0
LINE
  5
7C9
330
1F
100
AcDbEntity
  8
1
100
AcDbLine
 10
15827.03540485587
 20
2433.617321746547
 30
0.0
 11
15812.03540485587
 21
2433.617321746547
 31
0.0
  0
LINE
  5
7E2
330
1F
100
AcDbEntity
  8
1
100
AcDbLine
 10
16538.04282027691
 20
2441.117321746547
 30
0.0
 11
16523.04282027691
 21
2441.117321746547
 31
0.0
  0
LINE
  5
7FF
330
1F
100
AcDbEntity
  8
1
100
AcDbLine
 10
17273.59681070379
 20
2451.117321746548
 30
0.0
 11
17256.59681070379
 21
2451.117321746548
 31
0.0
  0
LINE
  5
8DF
330
1F
100
AcDbEntity
  8
1
100
AcDbLine
 10
14978.42734419713
 20
2090.821890976124
 30
0.0
 11
14953.42734419713
 21
2090.821890976124
 31
0.0
  0
LINE
  5
B24
330
1F
100
AcDbEntity
  8
1
  6
HIDDEN
 48
0.5
100
AcDbLine
 10
17254.59681070379
 20
2402.167321746548
 30
0.0
 11
17284.59681070378
 21
2402.167321746548
 31
0.0
  0
LINE
  5
B29
330
1F
100
AcDbEntity
  8
1
  6
HIDDEN
100
AcDbLine
 10
13456.71670296303
 20
1996.021890976123
 30
0.0
 11
13492.71670296304
 21
1996.021890976123
 31
0.0
  0
LINE
  5
CBC
330
1F
100
AcDbEntity
  8
1
  6
PHANTOM
 48
0.5
100
AcDbLine
 10
12558.18571223989
 20
2372.267321746548
 30
0.0
 11
12607.1857122399
 21
2372.267321746548
 31
0.0
  0
LINE
  5
CBE
330
1F
100
AcDbEntity
  8
1
  6
PHANTOM
 48
0.5
100
AcDbLine
 10
13152.19468368066
 20
2374.467321746548
 30
0.0
 11
13201.19468368066
 21
2374.467321746548
 31
0.0
  0
LINE
  5
CCB
330
1F
100
AcDbEntity
  8
1
  6
PHANTOM
 48
0.5
100
AcDbLine
 10
13791.83384332011
 20
2377.217321746547
 30
0.0
 11
13841.83384332011
 21
2377.217321746546
 31
0.0
  0
LINE
  5
CCF
330
1F
100
AcDbEntity
  8
1
  6
PHANTOM
 48
0.5
100
AcDbLine
 10
14423.1868932918
 20
2380.617321746547
 30
0.0
 11
14485.1868932918
 21
2380.617321746547
 31
0.0
  0
LINE
  5
CF1
330
1F
100
AcDbEntity
  8
1
  6
PHANTOM
 48
0.5
100
AcDbLine
 10
17254.59681070379
 20
2401.767321746548
 30
0.0
 11
17320.59681070379
 21
2401.767321746548
 31
0.0
  0
LINE
  5
CFC
330
1F
100
AcDbEntity
  8
1
  6
PHANTOM
 48
0.5
100
AcDbLine
 10
18080.07202643634
 20
2408.167321746548
 30
0.0
 11
18144.07202643634
 21
2408.167321746548
 31
0.0
  0
LINE
  5
D07
330
1F
100
AcDbEntity
  8
1
  6
PHANTOM
100
AcDbLine
 10
13456.71670296303
 20
1995.471890976124
 30
0.0
 11
13542.71670296304
 21
1995.471890976124
 31
0.0
  0
LINE
  5
1E9E
330
1F
100
AcDbEntity
  8
1
  6
CENTER
 48
2.0
100
AcDbLine
 10
14077.9345658322
 20
1198.619440937447
 30
0.0
 11
14704.54170868934
 21
1198.619440937447
 31
0.0
  0
LINE
  5
1EC9
330
1F
100
AcDbEntity
  8
1
  6
CENTER
 48
2.0
100
AcDbLine
 10
14391.23813726077
 20
885.3158695088756
 30
0.0
 11
14391.23813726077
 21
1511.923012366018
 31
0.0
  0
LINE
  5
1FB9
330
1F
100
AcDbEntity
  8
1
  6
CENTER
 48
2.0
100
AcDbLine
 10
13064.21255196344
 20
1198.619440937447
 30
0.0
 11
13615.2329601267
 21
1198.619440937447
 31
0.0
  0
LINE
  5
1FBD
330
1F
100
AcDbEntity
  8
1
100
AcDbLine
 10
13779.52170522906
 20
1467.619440937447
 30
0.0
 11
13779.52170522906
 21
929.6194409374475
 31
0.0
  0
LINE
  5
1FBE
330
1F
100
AcDbEntity
  8
1
  6
CENTER
100
AcDbLine
 10
13717.2812996028
 20
1198.619440937447
 30
0.0
 11
13822.22842931481
 21
1198.619440937447
 31
0.0
  0
LINE
  5
1FBF
330
1F
100
AcDbEntity
  8
1
  6
CENTER
100
AcDbLine
 10
13724.24106011489
 20
1438.619440937447
 30
0.0
 11
13790.59258306836
 21
1438.619440937447
 31
0.0
  0
LINE
  5
1FC0
330
1F
100
AcDbEntity
  8
1
  6
PHANTOM
100
AcDbLine
 10
13739.52170522905
 20
1376.419440937447
 30
0.0
 11
13865.52170522905
 21
1376.419440937447
 31
0.0
  0
LINE
  5
1FC1
330
1F
100
AcDbEntity
  8
1
  6
PHANTOM
100
AcDbLine
 10
13739.52170522906
 20
1368.519440937448
 30
0.0
 11
13865.52170522905
 21
1368.519440937447
 31
0.0
  0
LINE
  5
1FC5
330
1F
100
AcDbEntity
  8
1
  6
HIDDEN
100
AcDbLine
 10
13801.52170522906
 20
1377.669440937447
 30
0.0
 11
13739.52170522905
 21
1377.669440937447
 31
0.0
  0
LINE
  5
2023
330
1F
100
AcDbEntity
  8
1
  6
CENTER
100
AcDbLine
 10
12260.2254163016
 20
1198.619440937447
 30
0.0
 11
12756.4051915825
 21
1198.619440937447
 31
0.0
  0
LINE
  5
2024
330
1F
100
AcDbEntity
  8
1
  6
CENTER
100
AcDbLine
 10
12821.4817970498
 20
1198.619440937447
 30
0.0
 11
12915.54713453227
 21
1198.619440937447
 31
0.0
  0
LINE
  5
2025
330
1F
100
AcDbEntity
  8
1
  6
CENTER
 48
0.5
100
AcDbLine
 10
12831.4817970498
 20
1413.619440937447
 30
0.0
 11
12894.42145044603
 21
1413.619440937447
 31
0.0
  0
LINE
  5
202E
330
1F
100
AcDbEntity
  8
1
  6
PHANTOM
100
AcDbLine
 10
12845.4817970498
 20
1357.869440937447
 30
0.0
 11
12935.88088723227
 21
1357.869440937447
 31
0.0
  0
LINE
  5
2030
330
1F
100
AcDbEntity
  8
1
  6
HIDDEN
100
AcDbLine
 10
12901.48179704979
 20
1359.119440937447
 30
0.0
 11
12845.4817970498
 21
1359.119440937447
 31
0.0
  0
LINE
  5
206C
330
1F
100
AcDbEntity
  8
1
  6
PHANTOM
100
AcDbLine
 10
12845.4817970498
 20
1350.969440937448
 30
0.0
 11
12935.88088723227
 21
1350.969440937447
 31
0.0
  0
LINE
  5
2083
330
1F
100
AcDbEntity
  8
1
  6
CENTER
100
AcDbLine
 10
17707.02491109269
 20
1938.321890976123
 30
0.0
 11
18153.14991109269
 21
1938.321890976123
 31
0.0
  0
LINE
  5
2084
330
1F
100
AcDbEntity
  8
1
  6
CENTER
100
AcDbLine
 10
17930.08741109269
 20
1715.259390976124
 30
0.0
 11
17930.08741109269
 21
2161.384390976124
 31
0.0
  0
LINE
  5
20EC
330
1F
100
AcDbEntity
  8
1
  6
CENTER
 48
0.5
100
AcDbLine
 10
18248.3188423791
 20
2128.321890976124
 30
0.0
 11
18298.3188423791
 21
2128.321890976124
 31
0.0
  0
LINE
  5
20F0
330
1F
100
AcDbEntity
  8
1
  6
CENTER
100
AcDbLine
 10
18242.25964251033
 20
1938.321890976123
 30
0.0
 11
18323.69326776774
 21
1938.321890976123
 31
0.0
  0
LINE
  5
20F7
330
1F
100
AcDbEntity
  8
1
  6
PHANTOM
100
AcDbLine
 10
18256.3188423791
 20
2072.021890976123
 30
0.0
 11
18344.14432582173
 21
2072.021890976123
 31
0.0
  0
LINE
  5
20F9
330
1F
100
AcDbEntity
  8
1
  6
HIDDEN
100
AcDbLine
 10
18308.31884237909
 20
2073.071890976124
 30
0.0
 11
18256.3188423791
 21
2073.071890976123
 31
0.0
  0
LINE
  5
215C
330
1F
100
AcDbEntity
  8
1
  6
PHANTOM
100
AcDbLine
 10
18256.31884237909
 20
2065.421890976124
 30
0.0
 11
18344.14432582174
 21
2065.421890976124
 31
0.0
  0
LINE
  5
21B6
330
1F
100
AcDbEntity
  8
1
  6
CENTER
100
AcDbLine
 10
16090.10851608632
 20
1938.321890976123
 30
0.0
 11
16450.71457669238
 21
1938.321890976123
 31
0.0
  0
LINE
  5
21B8
330
1F
100
AcDbEntity
  8
1
  6
CENTER
100
AcDbLine
 10
16570.40257017249
 20
1938.321890976123
 30
0.0
 11
16638.40257017249
 21
1938.321890976123
 31
0.0
  0
LINE
  5
2201
330
1F
100
AcDbEntity
  8
1
  6
CENTER
 48
0.5
100
AcDbLine
 10
16573.40137970334
 20
2090.821890976124
 30
0.0
 11
16621.40137970334
 21
2090.821890976124
 31
0.0
  0
LINE
  5
2203
330
1F
100
AcDbEntity
  8
1
  6
PHANTOM
100
AcDbLine
 10
16581.40137970334
 20
2046.471890976124
 30
0.0
 11
16679.69352720798
 21
2046.471890976124
 31
0.0
  0
LINE
  5
2219
330
1F
100
AcDbEntity
  8
1
  6
PHANTOM
100
AcDbLine
 10
16581.40137970334
 20
2040.671890976125
 30
0.0
 11
16679.69352720798
 21
2040.671890976124
 31
0.0
  0
LINE
  5
23A2
330
1F
100
AcDbEntity
  8
1
  6
CENTER
100
AcDbLine
 10
14532.32887259911
 20
1938.321890976123
 30
0.0
 11
14848.22172974197
 21
1938.321890976123
 31
0.0
  0
LINE
  5
23A3
330
1F
100
AcDbEntity
  8
1
  6
CENTER
100
AcDbLine
 10
14690.27530117054
 20
1780.375462404695
 30
0.0
 11
14690.27530117054
 21
2096.268319547552
 31
0.0
  0
LINE
  5
23A5
330
1F
100
AcDbEntity
  8
1
  6
CENTER
 48
0.5
100
AcDbLine
 10
14942.42734419713
 20
2068.321890976123
 30
0.0
 11
14988.42734419713
 21
2068.321890976123
 31
0.0
  0
LINE
  5
23A7
330
1F
100
AcDbEntity
  8
1
  6
PHANTOM
100
AcDbLine
 10
14951.42734419713
 20
2020.921890976123
 30
0.0
 11
15031.07715047381
 21
2020.921890976123
 31
0.0
  0
LINE
  5
23A9
330
1F
100
AcDbEntity
  8
1
  6
HIDDEN
100
AcDbLine
 10
14993.42734419713
 20
2021.621890976123
 30
0.0
 11
14951.42734419713
 21
2021.621890976124
 31
0.0
  0
LINE
  5
2406
330
1F
100
AcDbEntity
  8
1
  6
CENTER
100
AcDbLine
 10
13816.96003241772
 20
1938.321890976123
 30
0.0
 11
14097.76003241772
 21
1938.321890976123
 31
0.0
  0
LINE
  5
2407
330
1F
100
AcDbEntity
  8
1
  6
CENTER
100
AcDbLine
 10
13957.36003241772
 20
1797.921890976123
 30
0.0
 11
13957.36003241772
 21
2078.721890976124
 31
0.0
  0
LINE
  5
2408
330
1F
100
AcDbEntity
  8
1
  6
CENTER
 48
0.5
100
AcDbLine
 10
14165.14760714459
 20
1938.321890976123
 30
0.0
 11
14231.14760714459
 21
1938.321890976123
 31
0.0
  0
LINE
  5
2409
330
1F
100
AcDbEntity
  8
1
  6
CENTER
 48
0.5
100
AcDbLine
 10
14169.09236465123
 20
2050.821890976124
 30
0.0
 11
14215.09236465124
 21
2050.821890976124
 31
0.0
  0
LINE
  5
240B
330
1F
100
AcDbEntity
  8
1
  6
PHANTOM
100
AcDbLine
 10
14179.09236465123
 20
2008.221890976124
 30
0.0
 11
14267.32852809875
 21
2008.221890976123
 31
0.0
  0
LINE
  5
2467
330
1F
100
AcDbEntity
  8
1
  6
HIDDEN
100
AcDbLine
 10
14219.09236465123
 20
2008.921890976124
 30
0.0
 11
14179.09236465123
 21
2008.921890976124
 31
0.0
  0
LINE
  5
247A
330
1F
100
AcDbEntity
  8
1
  6
CENTER
100
AcDbLine
 10
13132.74577882091
 20
1938.321890976123
 30
0.0
 11
13368.46006453519
 21
1938.321890976123
 31
0.0
  0
LINE
  5
247B
330
1F
100
AcDbEntity
  8
1
  6
CENTER
100
AcDbLine
 10
13250.60292167805
 20
1820.46474811898
 30
0.0
 11
13250.60292167805
 21
2056.179033833267
 31
0.0
  0
LINE
  5
247C
330
1F
100
AcDbEntity
  8
1
  6
CENTER
 48
0.5
100
AcDbLine
 10
13440.20572316155
 20
1938.321890976123
 30
0.0
 11
13506.20572316155
 21
1938.321890976123
 31
0.0
  0
LINE
  5
247D
330
1F
100
AcDbEntity
  8
1
  6
CENTER
 48
0.5
100
AcDbLine
 10
13443.71670296303
 20
2030.821890976124
 30
0.0
 11
13489.71670296303
 21
2030.821890976124
 31
0.0
  0
LINE
  5
24AD
330
1F
100
AcDbEntity
  8
1
  6
PHANTOM
100
AcDbLine
 10
14951.42734419713
 20
2015.921890976125
 30
0.0
 11
15031.07715047381
 21
2015.921890976124
 31
0.0
  0
LINE
  5
24AE
330
1F
100
AcDbEntity
  8
1
  6
PHANTOM
100
AcDbLine
 10
14179.09236465123
 20
2003.721890976125
 30
0.0
 11
14267.32852809875
 21
2003.721890976124
 31
0.0
  0
LINE
  5
24C7
330
1F
100
AcDbEntity
  8
1
  6
PHANTOM
100
AcDbLine
 10
13456.71670296303
 20
1990.971890976123
 30
0.0
 11
13542.71670296304
 21
1990.971890976123
 31
0.0
  0
LINE
  5
25B5
330
1F
100
AcDbEntity
  8
1
100
AcDbLine
 10
12755.11205645783
 20
2042.321890976124
 30
0.0
 11
12755.11205645783
 21
1834.321890976122
 31
0.0
  0
LINE
  5
25C7
330
1F
100
AcDbEntity
  8
1
  6
HIDDEN
100
AcDbLine
 10
12731.11205645782
 20
1989.621890976123
 30
0.0
 11
12767.11205645783
 21
1989.621890976124
 31
0.0
  0
LINE
  5
25CB
330
1F
100
AcDbEntity
  8
1
  6
PHANTOM
100
AcDbLine
 10
12731.11205645783
 20
1989.121890976123
 30
0.0
 11
12815.11205645783
 21
1989.121890976123
 31
0.0
  0
LINE
  5
25CD
330
1F
100
AcDbEntity
  8
1
  6
CENTER
100
AcDbLine
 10
12414.61365978822
 20
1938.321890976123
 30
0.0
 11
12635.38289055745
 21
1938.321890976123
 31
0.0
  0
LINE
  5
25CF
330
1F
100
AcDbEntity
  8
1
  6
CENTER
 48
0.5
100
AcDbLine
 10
12716.53493473721
 20
1938.321890976123
 30
0.0
 11
12780.53493473721
 21
1938.321890976123
 31
0.0
  0
LINE
  5
25D0
330
1F
100
AcDbEntity
  8
1
  6
CENTER
 48
0.5
100
AcDbLine
 10
12720.11205645783
 20
2023.321890976124
 30
0.0
 11
12764.11205645783
 21
2023.321890976124
 31
0.0
  0
LINE
  5
262D
330
1F
100
AcDbEntity
  8
1
  6
PHANTOM
100
AcDbLine
 10
12731.11205645783
 20
1984.921890976124
 30
0.0
 11
12815.11205645783
 21
1984.921890976124
 31
0.0
  0
LINE
  5
2665
330
1F
100
AcDbEntity
  8
1
  6
CENTER
100
AcDbLine
 10
17763.95289697266
 20
2363.617321746548
 30
0.0
 11
17974.76370778348
 21
2363.617321746548
 31
0.0
  0
LINE
  5
2666
330
1F
100
AcDbEntity
  8
1
  6
CENTER
100
AcDbLine
 10
17869.35830237807
 20
2258.211916341142
 30
0.0
 11
17869.35830237807
 21
2469.022727151953
 31
0.0
  0
LINE
  5
2667
330
1F
100
AcDbEntity
  8
1
  6
CENTER
 48
0.5
100
AcDbLine
 10
18067.98600891893
 20
2443.617321746548
 30
0.0
 11
18111.98600891893
 21
2443.617321746548
 31
0.0
  0
LINE
  5
266A
330
1F
100
AcDbEntity
  8
1
  6
CENTER
 48
0.5
100
AcDbLine
 10
18064.38721010213
 20
2363.617321746548
 30
0.0
 11
18128.38721010213
 21
2363.617321746548
 31
0.0
  0
LINE
  5
266D
330
1F
100
AcDbEntity
  8
1
  6
PHANTOM
 48
0.5
100
AcDbLine
 10
18080.07202643634
 20
2403.967321746549
 30
0.0
 11
18144.07202643634
 21
2403.967321746548
 31
0.0
  0
LINE
  5
26D6
330
1F
100
AcDbEntity
  8
1
  6
CENTER
 48
0.5
100
AcDbLine
 10
17002.00393707959
 20
2363.617321746548
 30
0.0
 11
17187.00393707959
 21
2363.617321746548
 31
0.0
  0
LINE
  5
26D7
330
1F
100
AcDbEntity
  8
1
  6
CENTER
 48
0.5
100
AcDbLine
 10
17094.50393707959
 20
2271.117321746547
 30
0.0
 11
17094.50393707959
 21
2456.117321746548
 31
0.0
  0
LINE
  5
26D8
330
1F
100
AcDbEntity
  8
1
  6
CENTER
 48
0.5
100
AcDbLine
 10
17250.73751447965
 20
2433.617321746547
 30
0.0
 11
17276.45610692792
 21
2433.617321746547
 31
0.0
  0
LINE
  5
26DA
330
1F
100
AcDbEntity
  8
1
  6
CENTER
 48
0.5
100
AcDbLine
 10
17247.88294007896
 20
2363.617321746548
 30
0.0
 11
17291.17779048741
 21
2363.617321746548
 31
0.0
  0
LINE
  5
270D
330
1F
100
AcDbEntity
  8
1
  6
PHANTOM
 48
0.5
100
AcDbLine
 10
17254.59681070379
 20
2397.567321746546
 30
0.0
 11
17320.59681070379
 21
2397.567321746548
 31
0.0
  0
LINE
  5
2753
330
1F
100
AcDbEntity
  8
1
  6
HIDDEN
 48
0.5
100
AcDbLine
 10
16521.04282027691
 20
2394.167321746548
 30
0.0
 11
16547.04282027691
 21
2394.167321746548
 31
0.0
  0
LINE
  5
2755
330
1F
100
AcDbEntity
  8
1
  6
PHANTOM
 48
0.5
100
AcDbLine
 10
16521.04282027691
 20
2393.867321746548
 30
0.0
 11
16585.04282027691
 21
2393.867321746547
 31
0.0
  0
LINE
  5
2759
330
1F
100
AcDbEntity
  8
1
  6
CENTER
 48
0.5
100
AcDbLine
 10
16512.08284323654
 20
2363.617321746548
 30
0.0
 11
16551.27308294424
 21
2363.617321746548
 31
0.0
  0
LINE
  5
2769
330
1F
100
AcDbEntity
  8
1
  6
PHANTOM
 48
0.5
100
AcDbLine
 10
16521.04282027691
 20
2390.067321746547
 30
0.0
 11
16585.04282027691
 21
2390.067321746547
 31
0.0
  0
LINE
  5
2791
330
1F
100
AcDbEntity
  8
1
  6
CENTER
 48
0.5
100
AcDbLine
 10
16515.18352405278
 20
2423.617321746548
 30
0.0
 11
16540.90211650104
 21
2423.617321746548
 31
0.0
  0
LINE
  5
2794
330
1F
100
AcDbEntity
  8
1
  6
CENTER
 48
0.5
100
AcDbLine
 10
16286.82724312506
 20
2363.617321746548
 30
0.0
 11
16451.82724312507
 21
2363.617321746548
 31
0.0
  0
LINE
  5
2795
330
1F
100
AcDbEntity
  8
1
  6
CENTER
 48
0.5
100
AcDbLine
 10
16369.32724312506
 20
2281.117321746548
 30
0.0
 11
16369.32724312506
 21
2446.117321746548
 31
0.0
  0
LINE
  5
27DE
330
1F
100
AcDbEntity
  8
1
  6
HIDDEN
 48
0.5
100
AcDbLine
 10
15810.03540485587
 20
2388.167321746548
 30
0.0
 11
15836.03540485587
 21
2388.167321746547
 31
0.0
  0
LINE
  5
27E0
330
1F
100
AcDbEntity
  8
1
  6
PHANTOM
 48
0.5
100
AcDbLine
 10
15810.03540485587
 20
2387.917321746548
 30
0.0
 11
15874.03540485587
 21
2387.917321746549
 31
0.0
  0
LINE
  5
27E4
330
1F
100
AcDbEntity
  8
1
  6
CENTER
 48
0.5
100
AcDbLine
 10
15807.36289818522
 20
2416.117321746547
 30
0.0
 11
15833.08149063348
 21
2416.117321746547
 31
0.0
  0
LINE
  5
27E6
330
1F
100
AcDbEntity
  8
1
  6
CENTER
 48
0.5
100
AcDbLine
 10
15802.99093746051
 20
2363.617321746548
 30
0.0
 11
15842.18117716821
 21
2363.617321746548
 31
0.0
  0
LINE
  5
27E7
330
1F
100
AcDbEntity
  8
1
  6
CENTER
 48
0.5
100
AcDbLine
 10
15613.78476345938
 20
2363.617321746548
 30
0.0
 11
15763.78476345938
 21
2363.617321746548
 31
0.0
  0
LINE
  5
27E8
330
1F
100
AcDbEntity
  8
1
  6
CENTER
 48
0.5
100
AcDbLine
 10
15688.78476345938
 20
2288.617321746547
 30
0.0
 11
15688.78476345938
 21
2438.617321746548
 31
0.0
  0
LINE
  5
287E
330
1F
100
AcDbEntity
  8
1
  6
PHANTOM
 48
0.5
100
AcDbLine
 10
15810.03540485587
 20
2384.417321746548
 30
0.0
 11
15874.03540485587
 21
2384.417321746548
 31
0.0
  0
LINE
  5
28AD
330
1F
100
AcDbEntity
  8
1
  6
PHANTOM
 48
0.5
100
AcDbLine
 10
15101.59929565238
 20
2384.967321746546
 30
0.0
 11
15163.59929565238
 21
2384.967321746548
 31
0.0
  0
LINE
  5
28AE
330
1F
100
AcDbEntity
  8
1
  6
PHANTOM
 48
0.5
100
AcDbLine
 10
15101.59929565238
 20
2381.467321746548
 30
0.0
 11
15163.59929565238
 21
2381.467321746548
 31
0.0
  0
LINE
  5
28B1
330
1F
100
AcDbEntity
  8
1
  6
CENTER
 48
0.5
100
AcDbLine
 10
15096.44994631963
 20
2413.617321746546
 30
0.0
 11
15122.1685387679
 21
2413.617321746547
 31
0.0
  0
LINE
  5
28B3
330
1F
100
AcDbEntity
  8
1
  6
CENTER
 48
0.5
100
AcDbLine
 10
15094.11213953103
 20
2363.617321746548
 30
0.0
 11
15133.30237923874
 21
2363.617321746548
 31
0.0
  0
LINE
  5
28B4
330
1F
100
AcDbEntity
  8
1
  6
CENTER
 48
0.5
100
AcDbLine
 10
14917.61009510308
 20
2363.617321746548
 30
0.0
 11
15062.61009510308
 21
2363.617321746548
 31
0.0
  0
LINE
  5
28B5
330
1F
100
AcDbEntity
  8
1
  6
CENTER
 48
0.5
100
AcDbLine
 10
14990.11009510308
 20
2291.117321746547
 30
0.0
 11
14990.11009510308
 21
2436.117321746548
 31
0.0
  0
LINE
  5
2906
330
1F
100
AcDbEntity
  8
1
  6
HIDDEN
 48
0.5
100
AcDbLine
 10
15127.59929565238
 20
2385.217321746548
 30
0.0
 11
15101.59929565238
 21
2385.217321746547
 31
0.0
  0
LINE
  5
2917
330
1F
100
AcDbEntity
  8
1
  6
CENTER
 48
0.5
100
AcDbLine
 10
14416.32759706767
 20
2408.617321746547
 30
0.0
 11
14442.04618951593
 21
2408.617321746547
 31
0.0
  0
LINE
  5
2919
330
1F
100
AcDbEntity
  8
1
  6
CENTER
 48
0.5
100
AcDbLine
 10
14414.04228623091
 20
2363.617321746549
 30
0.0
 11
14453.23252593861
 21
2363.617321746548
 31
0.0
  0
LINE
  5
291A
330
1F
100
AcDbEntity
  8
1
  6
CENTER
 48
0.5
100
AcDbLine
 10
14252.89510656993
 20
2363.617321746548
 30
0.0
 11
14387.89510656993
 21
2363.617321746548
 31
0.0
  0
LINE
  5
291B
330
1F
100
AcDbEntity
  8
1
  6
CENTER
 48
0.5
100
AcDbLine
 10
14320.39510656993
 20
2296.117321746548
 30
0.0
 11
14320.39510656993
 21
2431.117321746548
 31
0.0
  0
LINE
  5
2926
330
1F
100
AcDbEntity
  8
1
  6
PHANTOM
 48
0.5
100
AcDbLine
 10
14423.1868932918
 20
2377.417321746548
 30
0.0
 11
14485.1868932918
 21
2377.417321746547
 31
0.0
  0
LINE
  5
29A5
330
1F
100
AcDbEntity
  8
1
  6
CENTER
 48
0.5
100
AcDbLine
 10
13783.97454709598
 20
2401.117321746548
 30
0.0
 11
13809.69313954424
 21
2401.117321746548
 31
0.0
  0
LINE
  5
29A7
330
1F
100
AcDbEntity
  8
1
  6
CENTER
 48
0.5
100
AcDbLine
 10
13782.30534905468
 20
2363.617321746548
 30
0.0
 11
13821.49558876239
 21
2363.617321746548
 31
0.0
  0
LINE
  5
29A8
330
1F
100
AcDbEntity
  8
1
  6
CENTER
 48
0.5
100
AcDbLine
 10
13623.434564497
 20
2363.617321746548
 30
0.0
 11
13733.434564497
 21
2363.617321746548
 31
0.0
  0
LINE
  5
29A9
330
1F
100
AcDbEntity
  8
1
  6
CENTER
 48
0.5
100
AcDbLine
 10
13678.434564497
 20
2308.617321746547
 30
0.0
 11
13678.434564497
 21
2418.617321746548
 31
0.0
  0
LINE
  5
29E7
330
1F
100
AcDbEntity
  8
1
  6
PHANTOM
 48
0.5
100
AcDbLine
 10
13791.83384332011
 20
2374.417321746546
 30
0.0
 11
13841.83384332011
 21
2374.417321746546
 31
0.0
  0
LINE
  5
2A21
330
1F
100
AcDbEntity
  8
1
  6
CENTER
 48
0.5
100
AcDbLine
 10
13143.83538745652
 20
2398.61732174655
 30
0.0
 11
13172.55397990478
 21
2398.61732174655
 31
0.0
  0
LINE
  5
2A23
330
1F
100
AcDbEntity
  8
1
  6
CENTER
 48
0.5
100
AcDbLine
 10
13139.68267660915
 20
2363.617321746548
 30
0.0
 11
13178.87291631686
 21
2363.617321746548
 31
0.0
  0
LINE
  5
2A24
330
1F
100
AcDbEntity
  8
1
  6
CENTER
 48
0.5
100
AcDbLine
 10
13014.91217612852
 20
2363.617321746548
 30
0.0
 11
13119.91217612852
 21
2363.617321746548
 31
0.0
  0
LINE
  5
2A25
330
1F
100
AcDbEntity
  8
1
  6
CENTER
 48
0.5
100
AcDbLine
 10
13067.41217612852
 20
2311.117321746547
 30
0.0
 11
13067.41217612852
 21
2416.117321746547
 31
0.0
  0
LINE
  5
2A26
330
1F
100
AcDbEntity
  8
1
  6
CENTER
 48
0.5
100
AcDbLine
 10
13084.2059621817
 20
2380.41110779973
 30
0.0
 11
13100.1158647584
 21
2396.321010376429
 31
0.0
  0
LINE
  5
2A30
330
1F
100
AcDbEntity
  8
1
  6
PHANTOM
 48
0.5
100
AcDbLine
 10
13152.19468368066
 20
2371.667321746547
 30
0.0
 11
13201.19468368066
 21
2371.667321746547
 31
0.0
  0
LINE
  5
2B31
330
1F
100
AcDbEntity
  8
1
  6
CENTER
 48
0.2
100
AcDbLine
 10
12554.50694149661
 20
2396.117321746549
 30
0.0
 11
12574.24233824509
 21
2396.11732174655
 31
0.0
  0
LINE
  5
2B33
330
1F
100
AcDbEntity
  8
1
  6
CENTER
 48
0.5
100
AcDbLine
 10
12551.33942718425
 20
2363.617321746549
 30
0.0
 11
12581.83328488987
 21
2363.617321746549
 31
0.0
  0
LINE
  5
2B34
330
1F
100
AcDbEntity
  8
1
  6
CENTER
 48
0.5
100
AcDbLine
 10
12428.7927079297
 20
2363.617321746548
 30
0.0
 11
12528.79270792971
 21
2363.617321746548
 31
0.0
  0
LINE
  5
2B35
330
1F
100
AcDbEntity
  8
1
  6
CENTER
 48
0.5
100
AcDbLine
 10
12478.7927079297
 20
2313.617321746548
 30
0.0
 11
12478.7927079297
 21
2413.617321746548
 31
0.0
  0
LINE
  5
2B36
330
1F
100
AcDbEntity
  8
1
  6
CENTER
 48
0.5
100
AcDbLine
 10
12493.81872702992
 20
2378.643340846762
 30
0.0
 11
12509.72862960661
 21
2394.55324342346
 31
0.0
  0
LINE
  5
2B7F
330
1F
100
AcDbEntity
  8
1
  6
PHANTOM
 48
0.5
100
AcDbLine
 10
12558.18571223989
 20
2369.967321746547
 30
0.0
 11
12607.1857122399
 21
2369.967321746547
 31
0.0
  0
CIRCLE
  5
4787
330
1F
100
AcDbEntity
  8
1
100
AcDbCircle
 10
14391.23813726077
 20
1198.619440937447
 30
0.0
 40
302.5
  0
LINE
  5
48BE
330
1F
100
AcDbEntity
  8
1
100
AcDbLine
 10
14928.47926795766
 20
1500.119440937447
 30
0.0
 11
14928.47926795766
 21
897.1194409374474
 31
0.0
  0
LINE
  5
48BF
330
1F
100
AcDbEntity
  8
1
  6
CENTER
100
AcDbLine
 10
14858.5440706194
 20
1198.619440937447
 30
0.0
 11
14971.47153709448
 21
1198.619440937447
 31
0.0
  0
LINE
  5
48C0
330
1F
100
AcDbEntity
  8
1
  6
CENTER
100
AcDbLine
 10
14866.28851087497
 20
1468.619440937447
 30
0.0
 11
14946.85577204043
 21
1468.619440937447
 31
0.0
  0
LINE
  5
48C1
330
1F
100
AcDbEntity
  8
1
  6
PHANTOM
100
AcDbLine
 10
14882.47926795767
 20
1401.819440937446
 30
0.0
 11
15008.47926795766
 21
1401.819440937446
 31
0.0
  0
LINE
  5
48C2
330
1F
100
AcDbEntity
  8
1
  6
PHANTOM
100
AcDbLine
 10
14882.47926795767
 20
1393.919440937448
 30
0.0
 11
15008.47926795766
 21
1393.919440937447
 31
0.0
  0
LINE
  5
48C3
330
1F
100
AcDbEntity
  8
1
  6
HIDDEN
100
AcDbLine
 10
14952.47926795767
 20
1403.119440937446
 30
0.0
 11
14882.47926795767
 21
1403.119440937446
 31
0.0
  0
LINE
  5
48CA
330
1F
100
AcDbEntity
  8
1
  6
CENTER
100
AcDbLine
 10
14870.8731530826
 20
928.6194409374472
 30
0.0
 11
14943.07707257343
 21
928.6194409374472
 31
0.0
  0
LINE
  5
48CB
330
1F
100
AcDbEntity
  8
1
  6
PHANTOM
100
AcDbLine
 10
14882.47926795767
 20
995.4194409374473
 30
0.0
 11
15008.47926795766
 21
995.4194409374473
 31
0.0
  0
LINE
  5
48CC
330
1F
100
AcDbEntity
  8
1
  6
PHANTOM
100
AcDbLine
 10
14882.47926795767
 20
1003.319440937445
 30
0.0
 11
15008.47926795766
 21
1003.319440937446
 31
0.0
  0
LINE
  5
48CD
330
1F
100
AcDbEntity
  8
1
  6
HIDDEN
100
AcDbLine
 10
14952.47926795767
 20
994.1194409374476
 30
0.0
 11
14882.47926795767
 21
994.1194409374471
 31
0.0
  0
LINE
  5
4A19
330
1F
100
AcDbEntity
  8
1
  6
CENTER
 48
2.0
100
AcDbLine
 10
13339.72275604507
 20
923.1092368558149
 30
0.0
 11
13339.72275604507
 21
1474.12964501908
 31
0.0
  0
LINE
  5
4B36
330
1F
100
AcDbEntity
  8
1
  6
CENTER
100
AcDbLine
 10
13730.24106011488
 20
958.6194409374474
 30
0.0
 11
13796.59258306836
 21
958.6194409374474
 31
0.0
  0
LINE
  5
4B37
330
1F
100
AcDbEntity
  8
1
  6
PHANTOM
100
AcDbLine
 10
13739.52170522905
 20
1020.819440937447
 30
0.0
 11
13865.52170522905
 21
1020.819440937447
 31
0.0
  0
LINE
  5
4B38
330
1F
100
AcDbEntity
  8
1
  6
PHANTOM
100
AcDbLine
 10
13739.52170522906
 20
1028.719440937446
 30
0.0
 11
13865.52170522905
 21
1028.719440937446
 31
0.0
  0
LINE
  5
4B39
330
1F
100
AcDbEntity
  8
1
  6
HIDDEN
100
AcDbLine
 10
13801.52170522906
 20
1019.569440937447
 30
0.0
 11
13739.52170522905
 21
1019.569440937447
 31
0.0
  0
LINE
  5
4C06
330
1F
100
AcDbEntity
  8
1
  6
CENTER
100
AcDbLine
 10
12508.31530394205
 20
950.5295532969979
 30
0.0
 11
12508.31530394205
 21
1446.709328577896
 31
0.0
  0
LINE
  5
4DD8
330
1F
100
AcDbEntity
  8
1
  6
CENTER
 48
0.5
100
AcDbLine
 10
12831.4817970498
 20
983.6194409374471
 30
0.0
 11
12895.53335409637
 21
983.6194409374471
 31
0.0
  0
LINE
  5
4DD9
330
1F
100
AcDbEntity
  8
1
  6
PHANTOM
100
AcDbLine
 10
12845.4817970498
 20
1039.369440937447
 30
0.0
 11
12935.88088723227
 21
1039.369440937447
 31
0.0
  0
LINE
  5
4DDA
330
1F
100
AcDbEntity
  8
1
  6
PHANTOM
100
AcDbLine
 10
12845.4817970498
 20
1046.269440937445
 30
0.0
 11
12935.88088723227
 21
1046.269440937447
 31
0.0
  0
LINE
  5
4DDB
330
1F
100
AcDbEntity
  8
1
  6
HIDDEN
100
AcDbLine
 10
12901.4817970498
 20
1038.119440937449
 30
0.0
 11
12845.4817970498
 21
1038.119440937446
 31
0.0
  0
CIRCLE
  5
4E0A
330
1F
100
AcDbEntity
  8
1
100
AcDbCircle
 10
17930.08741109269
 20
1938.321890976123
 30
0.0
 40
215.0
  0
LINE
  5
4FB5
330
1F
100
AcDbEntity
  8
1
  6
CENTER
 48
0.5
100
AcDbLine
 10
18248.3188423791
 20
1748.321890976123
 30
0.0
 11
18298.3188423791
 21
1748.321890976123
 31
0.0
  0
LINE
  5
4FB6
330
1F
100
AcDbEntity
  8
1
  6
PHANTOM
100
AcDbLine
 10
18256.31884237909
 20
1804.621890976123
 30
0.0
 11
18344.14432582173
 21
1804.621890976124
 31
0.0
  0
LINE
  5
4FB7
330
1F
100
AcDbEntity
  8
1
  6
PHANTOM
100
AcDbLine
 10
18256.31884237909
 20
1811.221890976123
 30
0.0
 11
18344.14432582174
 21
1811.221890976123
 31
0.0
  0
LINE
  5
4FB8
330
1F
100
AcDbEntity
  8
1
  6
HIDDEN
100
AcDbLine
 10
18308.31884237909
 20
1803.571890976123
 30
0.0
 11
18256.31884237909
 21
1803.571890976123
 31
0.0
  0
LINE
  5
5194
330
1F
100
AcDbEntity
  8
1
  6
CENTER
100
AcDbLine
 10
16270.41154638935
 20
1758.018860673093
 30
0.0
 11
16270.41154638935
 21
2118.624921279154
 31
0.0
  0
LINE
  5
5248
330
1F
100
AcDbEntity
  8
1
  6
CENTER
 48
0.5
100
AcDbLine
 10
16573.40137970334
 20
1785.821890976123
 30
0.0
 11
16621.40137970334
 21
1785.821890976123
 31
0.0
  0
LINE
  5
5249
330
1F
100
AcDbEntity
  8
1
  6
PHANTOM
100
AcDbLine
 10
16581.40137970334
 20
1830.171890976123
 30
0.0
 11
16679.69352720798
 21
1830.171890976123
 31
0.0
  0
LINE
  5
524A
330
1F
100
AcDbEntity
  8
1
  6
PHANTOM
100
AcDbLine
 10
16581.40137970334
 20
1835.971890976123
 30
0.0
 11
16679.69352720798
 21
1835.971890976123
 31
0.0
  0
LINE
  5
524B
330
1F
100
AcDbEntity
  8
1
  6
HIDDEN
100
AcDbLine
 10
16627.40137970334
 20
1829.321890976124
 30
0.0
 11
16581.40137970334
 21
1829.321890976124
 31
0.0
  0
LINE
  5
54B7
330
1F
100
AcDbEntity
  8
1
100
AcDbLine
 10
14978.42734419713
 20
1785.821890976123
 30
0.0
 11
14953.42734419713
 21
1785.821890976123
 31
0.0
  0
LINE
  5
54B8
330
1F
100
AcDbEntity
  8
1
  6
CENTER
 48
0.5
100
AcDbLine
 10
14942.42734419713
 20
1808.321890976124
 30
0.0
 11
14988.42734419713
 21
1808.321890976124
 31
0.0
  0
LINE
  5
54B9
330
1F
100
AcDbEntity
  8
1
  6
PHANTOM
100
AcDbLine
 10
14951.42734419713
 20
1855.721890976123
 30
0.0
 11
15031.07715047381
 21
1855.721890976124
 31
0.0
  0
LINE
  5
54BA
330
1F
100
AcDbEntity
  8
1
  6
PHANTOM
100
AcDbLine
 10
14951.42734419713
 20
1860.721890976122
 30
0.0
 11
15031.07715047381
 21
1860.721890976123
 31
0.0
  0
LINE
  5
54BB
330
1F
100
AcDbEntity
  8
1
  6
HIDDEN
100
AcDbLine
 10
14993.42734419713
 20
1855.021890976123
 30
0.0
 11
14951.42734419713
 21
1855.021890976123
 31
0.0
  0
LINE
  5
5616
330
1F
100
AcDbEntity
  8
1
  6
CENTER
 48
0.5
100
AcDbLine
 10
14169.09236465123
 20
1825.821890976122
 30
0.0
 11
14215.09236465124
 21
1825.821890976122
 31
0.0
  0
LINE
  5
5617
330
1F
100
AcDbEntity
  8
1
  6
PHANTOM
100
AcDbLine
 10
14179.09236465123
 20
1868.421890976122
 30
0.0
 11
14267.32852809875
 21
1868.421890976123
 31
0.0
  0
LINE
  5
5618
330
1F
100
AcDbEntity
  8
1
  6
PHANTOM
100
AcDbLine
 10
14179.09236465123
 20
1872.921890976122
 30
0.0
 11
14267.32852809875
 21
1872.921890976122
 31
0.0
  0
LINE
  5
5619
330
1F
100
AcDbEntity
  8
1
  6
HIDDEN
100
AcDbLine
 10
14219.09236465123
 20
1867.721890976122
 30
0.0
 11
14179.09236465123
 21
1867.721890976122
 31
0.0
  0
CIRCLE
  5
564E
330
1F
100
AcDbEntity
  8
1
100
AcDbCircle
 10
13250.60292167805
 20
1938.321890976123
 30
0.0
 40
112.5
  0
LINE
  5
5742
330
1F
100
AcDbEntity
  8
1
  6
HIDDEN
100
AcDbLine
 10
13456.71670296303
 20
1880.621890976123
 30
0.0
 11
13492.71670296304
 21
1880.621890976124
 31
0.0
  0
LINE
  5
5743
330
1F
100
AcDbEntity
  8
1
  6
PHANTOM
100
AcDbLine
 10
13456.71670296303
 20
1881.171890976123
 30
0.0
 11
13542.71670296304
 21
1881.171890976123
 31
0.0
  0
LINE
  5
5744
330
1F
100
AcDbEntity
  8
1
  6
PHANTOM
100
AcDbLine
 10
13456.71670296303
 20
1885.671890976123
 30
0.0
 11
13542.71670296304
 21
1885.671890976123
 31
0.0
  0
LINE
  5
5745
330
1F
100
AcDbEntity
  8
1
  6
CENTER
 48
0.5
100
AcDbLine
 10
13443.71670296303
 20
1845.821890976123
 30
0.0
 11
13489.71670296303
 21
1845.821890976123
 31
0.0
  0
LINE
  5
57B0
330
1F
100
AcDbEntity
  8
1
  6
CENTER
100
AcDbLine
 10
12524.99827517284
 20
1827.937275591508
 30
0.0
 11
12524.99827517284
 21
2048.706506360739
 31
0.0
  0
LINE
  5
5819
330
1F
100
AcDbEntity
  8
1
  6
CENTER
 48
0.5
100
AcDbLine
 10
12720.11205645783
 20
1853.321890976123
 30
0.0
 11
12764.11205645783
 21
1853.321890976123
 31
0.0
  0
LINE
  5
581A
330
1F
100
AcDbEntity
  8
1
  6
HIDDEN
100
AcDbLine
 10
12731.11205645782
 20
1887.021890976122
 30
0.0
 11
12767.11205645783
 21
1887.021890976122
 31
0.0
  0
LINE
  5
581B
330
1F
100
AcDbEntity
  8
1
  6
PHANTOM
100
AcDbLine
 10
12731.11205645783
 20
1887.521890976122
 30
0.0
 11
12815.11205645783
 21
1887.521890976122
 31
0.0
  0
LINE
  5
581C
330
1F
100
AcDbEntity
  8
1
  6
PHANTOM
100
AcDbLine
 10
12731.11205645783
 20
1891.721890976122
 30
0.0
 11
12815.11205645783
 21
1891.721890976122
 31
0.0
  0
CIRCLE
  5
5854
330
1F
100
AcDbEntity
  8
1
  6
CENTER
100
AcDbCircle
 10
17869.35830237807
 20
2363.617321746548
 30
0.0
 40
80.0
  0
LINE
  5
58EE
330
1F
100
AcDbEntity
  8
1
  6
PHANTOM
 48
0.5
100
AcDbLine
 10
18080.07202643634
 20
2319.067321746548
 30
0.0
 11
18144.07202643634
 21
2319.067321746548
 31
0.0
  0
LINE
  5
58EF
330
1F
100
AcDbEntity
  8
1
  6
PHANTOM
 48
0.5
100
AcDbLine
 10
18080.07202643634
 20
2323.267321746547
 30
0.0
 11
18144.07202643634
 21
2323.267321746548
 31
0.0
  0
LINE
  5
58F0
330
1F
100
AcDbEntity
  8
1
  6
CENTER
 48
0.5
100
AcDbLine
 10
18067.98600891893
 20
2283.617321746548
 30
0.0
 11
18111.98600891893
 21
2283.617321746548
 31
0.0
  0
CIRCLE
  5
5948
330
1F
100
AcDbEntity
  8
1
100
AcDbCircle
 10
17094.50393707959
 20
2363.617321746548
 30
0.0
 40
87.5
  0
CIRCLE
  5
594A
330
1F
100
AcDbEntity
  8
1
  6
CENTER
100
AcDbCircle
 10
17094.50393707959
 20
2363.617321746548
 30
0.0
 40
70.00000000000037
  0
LINE
  5
59F7
330
1F
100
AcDbEntity
  8
1
100
AcDbLine
 10
17273.59681070379
 20
2276.117321746546
 30
0.0
 11
17256.59681070379
 21
2276.117321746545
 31
0.0
  0
LINE
  5
59F8
330
1F
100
AcDbEntity
  8
1
  6
HIDDEN
 48
0.5
100
AcDbLine
 10
17254.59681070379
 20
2325.067321746546
 30
0.0
 11
17284.59681070378
 21
2325.067321746547
 31
0.0
  0
LINE
  5
59F9
330
1F
100
AcDbEntity
  8
1
  6
CENTER
 48
0.5
100
AcDbLine
 10
17250.73751447965
 20
2293.617321746546
 30
0.0
 11
17276.45610692792
 21
2293.617321746546
 31
0.0
  0
LINE
  5
59FA
330
1F
100
AcDbEntity
  8
1
  6
PHANTOM
 48
0.5
100
AcDbLine
 10
17254.59681070379
 20
2325.467321746547
 30
0.0
 11
17320.59681070379
 21
2325.467321746547
 31
0.0
  0
LINE
  5
59FB
330
1F
100
AcDbEntity
  8
1
  6
PHANTOM
 48
0.5
100
AcDbLine
 10
17254.59681070379
 20
2329.667321746548
 30
0.0
 11
17320.59681070379
 21
2329.667321746546
 31
0.0
  0
CIRCLE
  5
5A34
330
1F
100
AcDbEntity
  8
1
100
AcDbCircle
 10
16369.32724312506
 20
2363.617321746547
 30
0.0
 40
77.5
  0
CIRCLE
  5
5A36
330
1F
100
AcDbEntity
  8
1
  6
CENTER
100
AcDbCircle
 10
16369.32724312506
 20
2363.617321746547
 30
0.0
 40
59.99999999999985
  0
LINE
  5
5AE7
330
1F
100
AcDbEntity
  8
1
  6
HIDDEN
 48
0.5
100
AcDbLine
 10
16539.04282027691
 20
2294.117321746548
 30
0.0
 11
16523.04282027691
 21
2294.117321746548
 31
0.0
  0
LINE
  5
5AE8
330
1F
100
AcDbEntity
  8
1
  6
HIDDEN
 48
0.5
100
AcDbLine
 10
16539.04282027691
 20
2313.117321746548
 30
0.0
 11
16523.04282027691
 21
2313.117321746548
 31
0.0
  0
LINE
  5
5AE9
330
1F
100
AcDbEntity
  8
1
100
AcDbLine
 10
16538.04282027691
 20
2286.117321746548
 30
0.0
 11
16523.04282027691
 21
2286.117321746548
 31
0.0
  0
LINE
  5
5AEA
330
1F
100
AcDbEntity
  8
1
  6
HIDDEN
 48
0.5
100
AcDbLine
 10
16521.04282027691
 20
2333.067321746547
 30
0.0
 11
16547.04282027691
 21
2333.067321746548
 31
0.0
  0
LINE
  5
5AEB
330
1F
100
AcDbEntity
  8
1
  6
PHANTOM
 48
0.5
100
AcDbLine
 10
16521.04282027691
 20
2333.367321746548
 30
0.0
 11
16585.04282027691
 21
2333.367321746547
 31
0.0
  0
LINE
  5
5AEC
330
1F
100
AcDbEntity
  8
1
  6
PHANTOM
 48
0.5
100
AcDbLine
 10
16521.04282027691
 20
2337.167321746547
 30
0.0
 11
16585.04282027691
 21
2337.167321746547
 31
0.0
  0
LINE
  5
5AED
330
1F
100
AcDbEntity
  8
1
  6
CENTER
 48
0.5
100
AcDbLine
 10
16515.18352405278
 20
2303.617321746548
 30
0.0
 11
16540.90211650104
 21
2303.617321746547
 31
0.0
  0
CIRCLE
  5
5B37
330
1F
100
AcDbEntity
  8
1
100
AcDbCircle
 10
15688.78476345938
 20
2363.617321746548
 30
0.0
 40
70.0
  0
CIRCLE
  5
5B39
330
1F
100
AcDbEntity
  8
1
  6
CENTER
 48
0.5
100
AcDbCircle
 10
15688.78476345938
 20
2363.617321746548
 30
0.0
 40
52.49999999999934
  0
LINE
  5
5BF5
330
1F
100
AcDbEntity
  8
1
100
AcDbLine
 10
15827.03540485587
 20
2293.617321746548
 30
0.0
 11
15812.03540485587
 21
2293.617321746548
 31
0.0
  0
LINE
  5
5BF7
330
1F
100
AcDbEntity
  8
1
  6
HIDDEN
 48
0.5
100
AcDbLine
 10
15810.03540485587
 20
2339.067321746547
 30
0.0
 11
15836.03540485587
 21
2339.067321746546
 31
0.0
  0
LINE
  5
5BF8
330
1F
100
AcDbEntity
  8
1
  6
PHANTOM
 48
0.5
100
AcDbLine
 10
15810.03540485587
 20
2339.317321746547
 30
0.0
 11
15874.03540485587
 21
2339.317321746547
 31
0.0
  0
LINE
  5
5BF9
330
1F
100
AcDbEntity
  8
1
  6
PHANTOM
 48
0.5
100
AcDbLine
 10
15810.03540485587
 20
2342.817321746547
 30
0.0
 11
15874.03540485587
 21
2342.817321746546
 31
0.0
  0
LINE
  5
5BFA
330
1F
100
AcDbEntity
  8
1
  6
CENTER
 48
0.5
100
AcDbLine
 10
15807.36289818522
 20
2311.117321746548
 30
0.0
 11
15833.08149063348
 21
2311.117321746547
 31
0.0
  0
CIRCLE
  5
5C3F
330
1F
100
AcDbEntity
  8
1
100
AcDbCircle
 10
14990.11009510308
 20
2363.617321746548
 30
0.0
 40
67.5
  0
CIRCLE
  5
5C41
330
1F
100
AcDbEntity
  8
1
  6
CENTER
100
AcDbCircle
 10
14990.11009510308
 20
2363.617321746548
 30
0.0
 40
49.99999999999989
  0
LINE
  5
5CF6
330
1F
100
AcDbEntity
  8
1
100
AcDbLine
 10
15118.59929565239
 20
2296.117321746547
 30
0.0
 11
15103.59929565238
 21
2296.117321746547
 31
0.0
  0
LINE
  5
5CF7
330
1F
100
AcDbEntity
  8
1
  6
PHANTOM
 48
0.5
100
AcDbLine
 10
15101.59929565238
 20
2342.267321746549
 30
0.0
 11
15163.59929565238
 21
2342.267321746547
 31
0.0
  0
LINE
  5
5CF8
330
1F
100
AcDbEntity
  8
1
  6
PHANTOM
 48
0.5
100
AcDbLine
 10
15101.59929565238
 20
2345.767321746548
 30
0.0
 11
15163.59929565238
 21
2345.767321746548
 31
0.0
  0
LINE
  5
5CF9
330
1F
100
AcDbEntity
  8
1
  6
CENTER
 48
0.5
100
AcDbLine
 10
15096.44994631963
 20
2313.617321746549
 30
0.0
 11
15122.1685387679
 21
2313.617321746548
 31
0.0
  0
LINE
  5
5CFA
330
1F
100
AcDbEntity
  8
1
  6
HIDDEN
 48
0.5
100
AcDbLine
 10
15127.59929565238
 20
2342.017321746549
 30
0.0
 11
15101.59929565238
 21
2342.017321746548
 31
0.0
  0
CIRCLE
  5
5D31
330
1F
100
AcDbEntity
  8
1
100
AcDbCircle
 10
14320.39510656993
 20
2363.617321746548
 30
0.0
 40
62.5
  0
CIRCLE
  5
5D33
330
1F
100
AcDbEntity
  8
1
  6
CENTER
 48
0.5
100
AcDbCircle
 10
14320.39510656993
 20
2363.617321746548
 30
0.0
 40
44.99999999999958
  0
LINE
  5
5DF5
330
1F
100
AcDbEntity
  8
1
  6
HIDDEN
 48
0.5
100
AcDbLine
 10
14447.1868932918
 20
2346.367321746546
 30
0.0
 11
14423.1868932918
 21
2346.36732174655
 31
0.0
  0
LINE
  5
5DF8
330
1F
100
AcDbEntity
  8
1
100
AcDbLine
 10
14438.1868932918
 20
2301.117321746549
 30
0.0
 11
14424.1868932918
 21
2301.117321746549
 31
0.0
  0
LINE
  5
5DF9
330
1F
100
AcDbEntity
  8
1
  6
PHANTOM
 48
0.5
100
AcDbLine
 10
14423.1868932918
 20
2346.617321746547
 30
0.0
 11
14485.1868932918
 21
2346.617321746549
 31
0.0
  0
LINE
  5
5DFA
330
1F
100
AcDbEntity
  8
1
  6
PHANTOM
 48
0.5
100
AcDbLine
 10
14423.1868932918
 20
2349.817321746547
 30
0.0
 11
14485.1868932918
 21
2349.817321746549
 31
0.0
  0
LINE
  5
5DFB
330
1F
100
AcDbEntity
  8
1
  6
CENTER
 48
0.5
100
AcDbLine
 10
14416.32759706767
 20
2318.617321746549
 30
0.0
 11
14442.04618951593
 21
2318.617321746549
 31
0.0
  0
CIRCLE
  5
5E66
330
1F
100
AcDbEntity
  8
1
100
AcDbCircle
 10
13678.434564497
 20
2363.617321746548
 30
0.0
 40
50.0
  0
CIRCLE
  5
5E68
330
1F
100
AcDbEntity
  8
1
  6
CENTER
 48
0.5
100
AcDbCircle
 10
13678.434564497
 20
2363.617321746548
 30
0.0
 40
37.50000000000002
  0
LINE
  5
5F26
330
1F
100
AcDbEntity
  8
1
  6
HIDDEN
 48
0.5
100
AcDbLine
 10
13791.83384332011
 20
2349.767321746548
 30
0.0
 11
13813.83384332011
 21
2349.767321746548
 31
0.0
  0
LINE
  5
5F29
330
1F
100
AcDbEntity
  8
1
100
AcDbLine
 10
13806.83384332011
 20
2313.617321746546
 30
0.0
 11
13792.83384332011
 21
2313.617321746548
 31
0.0
  0
LINE
  5
5F2A
330
1F
100
AcDbEntity
  8
1
  6
PHANTOM
 48
0.5
100
AcDbLine
 10
13791.83384332011
 20
2350.017321746546
 30
0.0
 11
13841.83384332011
 21
2350.017321746548
 31
0.0
  0
LINE
  5
5F2B
330
1F
100
AcDbEntity
  8
1
  6
PHANTOM
 48
0.5
100
AcDbLine
 10
13791.83384332011
 20
2352.817321746548
 30
0.0
 11
13841.83384332011
 21
2352.817321746549
 31
0.0
  0
LINE
  5
5F2C
330
1F
100
AcDbEntity
  8
1
  6
CENTER
 48
0.5
100
AcDbLine
 10
13783.97454709598
 20
2326.117321746547
 30
0.0
 11
13809.69313954424
 21
2326.117321746547
 31
0.0
  0
CIRCLE
  5
5F62
330
1F
100
AcDbEntity
  8
1
100
AcDbCircle
 10
13067.41217612852
 20
2363.617321746548
 30
0.0
 40
47.5
  0
CIRCLE
  5
5F64
330
1F
100
AcDbEntity
  8
1
  6
CENTER
 48
0.5
100
AcDbCircle
 10
13067.41217612852
 20
2363.617321746548
 30
0.0
 40
35.00000000000024
  0
LINE
  5
6028
330
1F
100
AcDbEntity
  8
1
  6
HIDDEN
 48
0.5
100
AcDbLine
 10
13152.19468368066
 20
2352.517321746548
 30
0.0
 11
13172.19468368066
 21
2352.517321746545
 31
0.0
  0
LINE
  5
602B
330
1F
100
AcDbEntity
  8
1
100
AcDbLine
 10
13165.19468368066
 20
2316.117321746546
 30
0.0
 11
13153.19468368066
 21
2316.117321746548
 31
0.0
  0
LINE
  5
602C
330
1F
100
AcDbEntity
  8
1
  6
PHANTOM
 48
0.5
100
AcDbLine
 10
13152.19468368066
 20
2352.767321746547
 30
0.0
 11
13201.19468368066
 21
2352.767321746547
 31
0.0
  0
LINE
  5
602D
330
1F
100
AcDbEntity
  8
1
  6
PHANTOM
 48
0.5
100
AcDbLine
 10
13152.19468368066
 20
2355.567321746548
 30
0.0
 11
13201.19468368066
 21
2355.567321746548
 31
0.0
  0
LINE
  5
603C
330
1F
100
AcDbEntity
  8
1
  6
CENTER
 48
0.5
100
AcDbLine
 10
13143.83538745652
 20
2328.617321746547
 30
0.0
 11
13172.55397990478
 21
2328.617321746546
 31
0.0
  0
CIRCLE
  5
6065
330
1F
100
AcDbEntity
  8
1
100
AcDbCircle
 10
12478.7927079297
 20
2363.617321746548
 30
0.0
 40
45.0
  0
CIRCLE
  5
6067
330
1F
100
AcDbEntity
  8
1
  6
CENTER
 48
0.5
100
AcDbCircle
 10
12478.7927079297
 20
2363.617321746548
 30
0.0
 40
32.50000000000046
  0
LINE
  5
610F
330
1F
100
AcDbEntity
  8
1
  6
HIDDEN
 48
0.5
100
AcDbLine
 10
12558.18571223989
 20
2354.717321746549
 30
0.0
 11
12578.18571223989
 21
2354.717321746548
 31
0.0
  0
LINE
  5
6110
330
1F
100
AcDbEntity
  8
1
100
AcDbLine
 10
12571.1857122399
 20
2318.61732174655
 30
0.0
 11
12559.18571223989
 21
2318.61732174655
 31
0.0
  0
LINE
  5
6113
330
1F
100
AcDbEntity
  8
1
  6
PHANTOM
 48
0.5
100
AcDbLine
 10
12558.18571223989
 20
2354.967321746549
 30
0.0
 11
12607.1857122399
 21
2354.967321746549
 31
0.0
  0
LINE
  5
6114
330
1F
100
AcDbEntity
  8
1
  6
PHANTOM
 48
0.5
100
AcDbLine
 10
12558.18571223989
 20
2357.267321746549
 30
0.0
 11
12607.1857122399
 21
2357.267321746549
 31
0.0
  0
LINE
  5
6115
330
1F
100
AcDbEntity
  8
1
  6
CENTER
 48
0.2
100
AcDbLine
 10
12554.50694149661
 20
2331.117321746548
 30
0.0
 11
12574.24233824508
 21
2331.117321746548
 31
0.0
  0
CIRCLE
  5
7BB3
330
1F
100
AcDbEntity
  8
1
100
AcDbCircle
 10
12501.77367831826
 20
2386.598292135113
 30
0.0
 40
7.5
  0
LINE
  5
7BC7
330
1F
100
AcDbEntity
  8
1
  6
CENTER
 48
0.5
100
AcDbLine
 10
12463.76668882949
 20
2378.643340846759
 30
0.0
 11
12447.85678625279
 21
2394.553243423456
 31
0.0
  0
CIRCLE
  5
7BC8
330
1F
100
AcDbEntity
  8
1
100
AcDbCircle
 10
12455.81173754114
 20
2386.598292135106
 30
0.0
 40
7.5
  0
LINE
  5
7BC9
330
1F
100
AcDbEntity
  8
1
  6
CENTER
 48
0.5
100
AcDbLine
 10
12463.76668882949
 20
2348.591302646331
 30
0.0
 11
12447.8567862528
 21
2332.681400069634
 31
0.0
  0
CIRCLE
  5
7BCA
330
1F
100
AcDbEntity
  8
1
100
AcDbCircle
 10
12455.81173754115
 20
2340.636351357983
 30
0.0
 40
7.5
  0
LINE
  5
7BCB
330
1F
100
AcDbEntity
  8
1
  6
CENTER
 48
0.5
100
AcDbLine
 10
12493.81872702992
 20
2348.591302646337
 30
0.0
 11
12509.72862960662
 21
2332.68140006964
 31
0.0
  0
CIRCLE
  5
7BCC
330
1F
100
AcDbEntity
  8
1
100
AcDbCircle
 10
12501.77367831827
 20
2340.636351357988
 30
0.0
 40
7.5
  0
LINE
  5
7BCD
330
1F
100
AcDbEntity
  8
1
  6
HIDDEN
 48
0.5
100
AcDbLine
 10
12572.1857122399
 20
2388.617321746549
 30
0.0
 11
12559.1857122399
 21
2388.617321746549
 31
0.0
  0
LINE
  5
7BCE
330
1F
100
AcDbEntity
  8
1
  6
HIDDEN
 48
0.5
100
AcDbLine
 10
12572.1857122399
 20
2403.617321746549
 30
0.0
 11
12559.1857122399
 21
2403.617321746547
 31
0.0
  0
LINE
  5
7BCF
330
1F
100
AcDbEntity
  8
1
  6
HIDDEN
 48
0.5
100
AcDbLine
 10
12572.1857122399
 20
2338.617321746548
 30
0.0
 11
12559.18571223989
 21
2338.617321746548
 31
0.0
  0
LINE
  5
7BD0
330
1F
100
AcDbEntity
  8
1
  6
HIDDEN
 48
0.5
100
AcDbLine
 10
12572.1857122399
 20
2323.617321746548
 30
0.0
 11
12559.18571223989
 21
2323.617321746548
 31
0.0
  0
LINE
  5
7BE3
330
1F
100
AcDbEntity
  8
1
100
AcDbLine
 10
12558.18571223989
 20
2340.61732174655
 30
0.0
 11
12558.1857122399
 21
2386.61732174655
 31
0.0
  0
CIRCLE
  5
7BEE
330
1F
100
AcDbEntity
  8
1
100
AcDbCircle
 10
13092.16091347005
 20
2388.36605908808
 30
0.0
 40
7.5
  0
CIRCLE
  5
7C02
330
1F
100
AcDbEntity
  8
1
100
AcDbCircle
 10
13042.66343878699
 20
2388.366059088074
 30
0.0
 40
7.5
  0
LINE
  5
7C03
330
1F
100
AcDbEntity
  8
1
  6
CENTER
 48
0.5
100
AcDbLine
 10
13050.61839007534
 20
2380.411107799725
 30
0.0
 11
13034.70848749864
 21
2396.32101037642
 31
0.0
  0
CIRCLE
  5
7C04
330
1F
100
AcDbEntity
  8
1
100
AcDbCircle
 10
13042.663438787
 20
2338.868584405015
 30
0.0
 40
7.5
  0
LINE
  5
7C05
330
1F
100
AcDbEntity
  8
1
  6
CENTER
 48
0.5
100
AcDbLine
 10
13050.61839007535
 20
2346.823535693366
 30
0.0
 11
13034.70848749865
 21
2330.913633116666
 31
0.0
  0
CIRCLE
  5
7C06
330
1F
100
AcDbEntity
  8
1
100
AcDbCircle
 10
13092.16091347006
 20
2338.86858440502
 30
0.0
 40
7.5
  0
LINE
  5
7C07
330
1F
100
AcDbEntity
  8
1
  6
CENTER
 48
0.5
100
AcDbLine
 10
13084.20596218171
 20
2346.823535693368
 30
0.0
 11
13100.11586475841
 21
2330.913633116673
 31
0.0
  0
LINE
  5
7C08
330
1F
100
AcDbEntity
  8
1
  6
HIDDEN
 48
0.5
100
AcDbLine
 10
13166.19468368065
 20
2406.117321746547
 30
0.0
 11
13153.19468368065
 21
2406.117321746548
 31
0.0
  0
LINE
  5
7C09
330
1F
100
AcDbEntity
  8
1
  6
HIDDEN
 48
0.5
100
AcDbLine
 10
13166.19468368065
 20
2391.117321746548
 30
0.0
 11
13153.19468368065
 21
2391.117321746548
 31
0.0
  0
LINE
  5
7C0A
330
1F
100
AcDbEntity
  8
1
  6
HIDDEN
 48
0.5
100
AcDbLine
 10
13166.19468368065
 20
2336.117321746546
 30
0.0
 11
13153.19468368066
 21
2336.117321746547
 31
0.0
  0
LINE
  5
7C0B
330
1F
100
AcDbEntity
  8
1
  6
HIDDEN
 48
0.5
100
AcDbLine
 10
13166.19468368065
 20
2321.117321746547
 30
0.0
 11
13153.19468368066
 21
2321.117321746546
 31
0.0
  0
LINE
  5
7C1E
330
1F
100
AcDbEntity
  8
1
100
AcDbLine
 10
13152.19468368066
 20
2389.117321746547
 30
0.0
 11
13152.19468368066
 21
2338.117321746548
 31
0.0
  0
CIRCLE
  5
7C41
330
1F
100
AcDbEntity
  8
1
100
AcDbCircle
 10
13651.9180602025
 20
2390.13382604104
 30
0.0
 40
7.5
  0
LINE
  5
7C42
330
1F
100
AcDbEntity
  8
1
  6
CENTER
 48
0.5
100
AcDbLine
 10
13659.87301149085
 20
2382.17887475269
 30
0.0
 11
13643.96310891416
 21
2398.088777329386
 31
0.0
  0
LINE
  5
7C47
330
1F
100
AcDbEntity
  8
1
  6
HIDDEN
 48
0.5
100
AcDbLine
 10
13807.83384332011
 20
2408.617321746548
 30
0.0
 11
13792.83384332011
 21
2408.617321746547
 31
0.0
  0
LINE
  5
7C48
330
1F
100
AcDbEntity
  8
1
  6
HIDDEN
 48
0.5
100
AcDbLine
 10
13807.83384332011
 20
2393.617321746548
 30
0.0
 11
13792.83384332011
 21
2393.617321746547
 31
0.0
  0
LINE
  5
7C49
330
1F
100
AcDbEntity
  8
1
  6
HIDDEN
 48
0.5
100
AcDbLine
 10
13807.83384332011
 20
2333.617321746547
 30
0.0
 11
13792.83384332011
 21
2333.617321746548
 31
0.0
  0
LINE
  5
7C4A
330
1F
100
AcDbEntity
  8
1
  6
HIDDEN
 48
0.5
100
AcDbLine
 10
13807.83384332011
 20
2318.617321746547
 30
0.0
 11
13792.83384332011
 21
2318.617321746548
 31
0.0
  0
LINE
  5
7C5D
330
1F
100
AcDbEntity
  8
1
100
AcDbLine
 10
13791.83384332011
 20
2391.617321746548
 30
0.0
 11
13791.83384332011
 21
2335.617321746548
 31
0.0
  0
LINE
  5
7C83
330
1F
100
AcDbEntity
  8
1
  6
CENTER
 48
0.5
100
AcDbLine
 10
14297.41413618137
 20
2386.598292135113
 30
0.0
 11
14279.73646665171
 21
2404.275961664775
 31
0.0
  0
LINE
  5
7C88
330
1F
100
AcDbEntity
  8
1
  6
HIDDEN
 48
0.5
100
AcDbLine
 10
14424.1868932918
 20
2418.117321746546
 30
0.0
 11
14439.1868932918
 21
2418.117321746547
 31
0.0
  0
LINE
  5
7C89
330
1F
100
AcDbEntity
  8
1
  6
HIDDEN
 48
0.5
100
AcDbLine
 10
14424.1868932918
 20
2399.117321746548
 30
0.0
 11
14439.1868932918
 21
2399.117321746548
 31
0.0
  0
LINE
  5
7CA9
330
1F
100
AcDbEntity
  8
1
  6
HIDDEN
 48
0.5
100
AcDbLine
 10
14424.1868932918
 20
2328.11732174655
 30
0.0
 11
14439.1868932918
 21
2328.11732174655
 31
0.0
  0
LINE
  5
7CAA
330
1F
100
AcDbEntity
  8
1
  6
HIDDEN
 48
0.5
100
AcDbLine
 10
14424.1868932918
 20
2309.11732174655
 30
0.0
 11
14439.1868932918
 21
2309.11732174655
 31
0.0
  0
LINE
  5
7CBE
330
1F
100
AcDbEntity
  8
1
100
AcDbLine
 10
14423.1868932918
 20
2397.117321746549
 30
0.0
 11
14423.1868932918
 21
2330.117321746546
 31
0.0
  0
LINE
  5
7CDC
330
1F
100
AcDbEntity
  8
1
  6
CENTER
 48
0.5
100
AcDbLine
 10
14963.59359080859
 20
2390.133826041041
 30
0.0
 11
14945.91592127893
 21
2407.811495570705
 31
0.0
  0
LINE
  5
7CE1
330
1F
100
AcDbEntity
  8
1
  6
HIDDEN
 48
0.5
100
AcDbLine
 10
15119.59929565238
 20
2423.117321746548
 30
0.0
 11
15103.59929565238
 21
2423.117321746548
 31
0.0
  0
LINE
  5
7CE2
330
1F
100
AcDbEntity
  8
1
  6
HIDDEN
 48
0.5
100
AcDbLine
 10
15119.59929565238
 20
2404.117321746548
 30
0.0
 11
15103.59929565238
 21
2404.117321746547
 31
0.0
  0
LINE
  5
7CE3
330
1F
100
AcDbEntity
  8
1
  6
HIDDEN
 48
0.5
100
AcDbLine
 10
15119.59929565238
 20
2323.117321746547
 30
0.0
 11
15103.59929565238
 21
2323.117321746547
 31
0.0
  0
LINE
  5
7CE4
330
1F
100
AcDbEntity
  8
1
  6
HIDDEN
 48
0.5
100
AcDbLine
 10
15119.59929565238
 20
2304.117321746547
 30
0.0
 11
15103.59929565238
 21
2304.117321746547
 31
0.0
  0
LINE
  5
7CE5
330
1F
100
AcDbEntity
  8
1
100
AcDbLine
 10
15101.59929565238
 20
2401.617321746547
 30
0.0
 11
15101.59929565238
 21
2325.617321746548
 31
0.0
  0
LINE
  5
7D26
330
1F
100
AcDbEntity
  8
1
  6
CENTER
 48
0.5
100
AcDbLine
 10
15660.50049221192
 20
2391.901592994011
 30
0.0
 11
15642.82282268225
 21
2409.579262523675
 31
0.0
  0
LINE
  5
7D2B
330
1F
100
AcDbEntity
  8
1
  6
HIDDEN
 48
0.5
100
AcDbLine
 10
15828.03540485587
 20
2425.617321746548
 30
0.0
 11
15812.03540485587
 21
2425.617321746548
 31
0.0
  0
LINE
  5
7D2C
330
1F
100
AcDbEntity
  8
1
  6
HIDDEN
 48
0.5
100
AcDbLine
 10
15828.03540485587
 20
2406.617321746548
 30
0.0
 11
15812.03540485587
 21
2406.617321746548
 31
0.0
  0
LINE
  5
7D2D
330
1F
100
AcDbEntity
  8
1
  6
HIDDEN
 48
0.5
100
AcDbLine
 10
15828.03540485587
 20
2320.617321746548
 30
0.0
 11
15812.03540485587
 21
2320.617321746548
 31
0.0
  0
LINE
  5
7D2E
330
1F
100
AcDbEntity
  8
1
  6
HIDDEN
 48
0.5
100
AcDbLine
 10
15828.03540485587
 20
2301.617321746547
 30
0.0
 11
15812.03540485587
 21
2301.617321746547
 31
0.0
  0
LINE
  5
7D4E
330
1F
100
AcDbEntity
  8
1
100
AcDbLine
 10
15810.03540485587
 20
2404.117321746548
 30
0.0
 11
15810.03540485587
 21
2323.117321746547
 31
0.0
  0
LINE
  5
7D5E
330
1F
100
AcDbEntity
  8
1
  6
CENTER
 48
0.5
100
AcDbLine
 10
16325.44296533078
 20
2381.79478478389
 30
0.0
 11
16302.34597701799
 21
2391.361870593017
 31
0.0
  0
LINE
  5
7D75
330
1F
100
AcDbEntity
  8
1
  6
HIDDEN
 48
0.5
100
AcDbLine
 10
16539.04282027691
 20
2433.117321746548
 30
0.0
 11
16523.04282027691
 21
2433.117321746548
 31
0.0
  0
LINE
  5
7D76
330
1F
100
AcDbEntity
  8
1
  6
HIDDEN
 48
0.5
100
AcDbLine
 10
16539.04282027691
 20
2414.117321746548
 30
0.0
 11
16523.04282027691
 21
2414.117321746548
 31
0.0
  0
LINE
  5
7D96
330
1F
100
AcDbEntity
  8
1
100
AcDbLine
 10
16521.04282027691
 20
2411.617321746548
 30
0.0
 11
16521.04282027691
 21
2315.617321746548
 31
0.0
  0
LINE
  5
7DB8
330
1F
100
AcDbEntity
  8
1
  6
CENTER
 48
0.5
100
AcDbLine
 10
17041.38086396019
 20
2385.621619107546
 30
0.0
 11
17018.28387564741
 21
2395.188704916673
 31
0.0
  0
LINE
  5
7DBD
330
1F
100
AcDbEntity
  8
1
  6
HIDDEN
 48
0.5
100
AcDbLine
 10
17274.24868432047
 20
2443.117321746548
 30
0.0
 11
17256.59681070379
 21
2443.117321746548
 31
0.0
  0
LINE
  5
7DBE
330
1F
100
AcDbEntity
  8
1
  6
HIDDEN
 48
0.5
100
AcDbLine
 10
17274.24868432047
 20
2424.117321746548
 30
0.0
 11
17256.59681070379
 21
2424.117321746548
 31
0.0
  0
LINE
  5
7DBF
330
1F
100
AcDbEntity
  8
1
  6
HIDDEN
 48
0.5
100
AcDbLine
 10
17274.24868432047
 20
2284.117321746547
 30
0.0
 11
17256.59681070379
 21
2284.117321746547
 31
0.0
  0
LINE
  5
7DC0
330
1F
100
AcDbEntity
  8
1
  6
HIDDEN
 48
0.5
100
AcDbLine
 10
17274.24868432047
 20
2303.117321746547
 30
0.0
 11
17256.59681070379
 21
2303.117321746547
 31
0.0
  0
LINE
  5
7DE0
330
1F
100
AcDbEntity
  8
1
100
AcDbLine
 10
17256.59681070379
 20
2451.117321746548
 30
0.0
 11
17256.59681070379
 21
2276.117321746546
 31
0.0
  0
LINE
  5
7E11
330
1F
100
AcDbEntity
  8
1
  6
CENTER
 48
0.5
100
AcDbLine
 10
17846.07839357587
 20
2419.819993307649
 30
0.0
 11
17831.40886200186
 21
2455.235375387247
 31
0.0
  0
LINE
  5
7E1F
330
1F
100
AcDbEntity
  8
1
  6
HIDDEN
 48
0.5
100
AcDbLine
 10
18102.07202643633
 20
2455.117321746548
 30
0.0
 11
18082.07202643633
 21
2455.117321746548
 31
0.0
  0
LINE
  5
7E21
330
1F
100
AcDbEntity
  8
1
  6
HIDDEN
 48
0.5
100
AcDbLine
 10
18102.07202643633
 20
2295.117321746547
 30
0.0
 11
18082.07202643633
 21
2295.117321746548
 31
0.0
  0
LINE
  5
7E22
330
1F
100
AcDbEntity
  8
1
  6
HIDDEN
 48
0.5
100
AcDbLine
 10
18102.07202643633
 20
2272.117321746547
 30
0.0
 11
18082.07202643633
 21
2272.117321746548
 31
0.0
  0
LINE
  5
7E3D
330
1F
100
AcDbEntity
  8
1
100
AcDbLine
 10
18080.07202643634
 20
2429.617321746548
 30
0.0
 11
18080.07202643634
 21
2297.617321746548
 31
0.0
  0
LINE
  5
7E7F
330
1F
100
AcDbEntity
  8
1
  6
CENTER
 48
0.5
100
AcDbLine
 10
12499.80494920879
 20
1999.143960199784
 30
0.0
 11
12485.1354176348
 21
2034.559342279383
 31
0.0
  0
LINE
  5
7EC2
330
1F
100
AcDbEntity
  8
1
100
AcDbLine
 10
12731.11205645783
 20
2010.821890976123
 30
0.0
 11
12731.11205645783
 21
1865.821890976123
 31
0.0
  0
LINE
  5
7ECD
330
1F
100
AcDbEntity
  8
1
  6
CENTER
 48
0.5
100
AcDbLine
 10
13222.53946997127
 20
2006.073056693615
 30
0.0
 11
13207.86993839727
 21
2041.488438773214
 31
0.0
  0
LINE
  5
7EF1
330
1F
100
AcDbEntity
  8
1
  6
HIDDEN
100
AcDbLine
 10
13480.71670296303
 20
2042.321890976124
 30
0.0
 11
13458.71670296304
 21
2042.321890976124
 31
0.0
  0
LINE
  5
7EF2
330
1F
100
AcDbEntity
  8
1
  6
HIDDEN
100
AcDbLine
 10
13480.71670296303
 20
2019.321890976124
 30
0.0
 11
13458.71670296304
 21
2019.321890976124
 31
0.0
  0
LINE
  5
7EF3
330
1F
100
AcDbEntity
  8
1
  6
HIDDEN
100
AcDbLine
 10
13480.71670296303
 20
1857.321890976123
 30
0.0
 11
13458.71670296304
 21
1857.321890976123
 31
0.0
  0
LINE
  5
7EF4
330
1F
100
AcDbEntity
  8
1
  6
HIDDEN
100
AcDbLine
 10
13480.71670296303
 20
1834.321890976124
 30
0.0
 11
13458.71670296304
 21
1834.321890976124
 31
0.0
  0
LINE
  5
7F18
330
1F
100
AcDbEntity
  8
1
100
AcDbLine
 10
13456.71670296303
 20
2018.321890976123
 30
0.0
 11
13456.71670296303
 21
1858.321890976124
 31
0.0
  0
LINE
  5
7F3E
330
1F
100
AcDbEntity
  8
1
  6
CENTER
 48
0.5
100
AcDbLine
 10
13921.60934334148
 20
2024.63168940809
 30
0.0
 11
13907.00694921177
 21
2059.884987359184
 31
0.0
  0
LINE
  5
7F4B
330
1F
100
AcDbEntity
  8
1
  6
HIDDEN
100
AcDbLine
 10
14205.09236465123
 20
2063.321890976124
 30
0.0
 11
14181.09236465124
 21
2063.321890976124
 31
0.0
  0
LINE
  5
7F4C
330
1F
100
AcDbEntity
  8
1
  6
HIDDEN
100
AcDbLine
 10
14205.09236465123
 20
2038.321890976124
 30
0.0
 11
14181.09236465123
 21
2038.321890976124
 31
0.0
  0
LINE
  5
7F4D
330
1F
100
AcDbEntity
  8
1
  6
HIDDEN
100
AcDbLine
 10
14205.09236465123
 20
1813.321890976123
 30
0.0
 11
14181.09236465123
 21
1813.321890976123
 31
0.0
  0
LINE
  5
7F4E
330
1F
100
AcDbEntity
  8
1
  6
HIDDEN
100
AcDbLine
 10
14205.09236465123
 20
1838.321890976123
 30
0.0
 11
14181.09236465123
 21
1838.321890976122
 31
0.0
  0
LINE
  5
7F72
330
1F
100
AcDbEntity
  8
1
100
AcDbLine
 10
14179.09236465123
 20
2035.821890976123
 30
0.0
 11
14179.09236465123
 21
1840.821890976123
 31
0.0
  0
LINE
  5
7F98
330
1F
100
AcDbEntity
  8
1
  6
CENTER
 48
0.5
100
AcDbLine
 10
14661.56682024669
 20
2045.46340039214
 30
0.0
 11
14651.69083036779
 21
2082.321096395278
 31
0.0
  0
LINE
  5
7FB2
330
1F
100
AcDbEntity
  8
1
100
AcDbLine
 10
14951.42734419713
 20
2053.321890976123
 30
0.0
 11
14951.42734419713
 21
1823.321890976123
 31
0.0
  0
LINE
  5
803D
330
1F
100
AcDbEntity
  8
1
  6
CENTER
 48
0.5
100
AcDbLine
 10
16149.08690919629
 20
2059.646528169183
 30
0.0
 11
16176.06861532051
 21
2032.66482204496
 31
0.0
  0
LINE
  5
8050
330
1F
100
AcDbEntity
  8
1
  6
HIDDEN
100
AcDbLine
 10
16611.40137970334
 20
2103.321890976124
 30
0.0
 11
16583.40137970334
 21
2103.321890976124
 31
0.0
  0
LINE
  5
8052
330
1F
100
AcDbEntity
  8
1
  6
HIDDEN
100
AcDbLine
 10
16611.40137970334
 20
1773.321890976123
 30
0.0
 11
16583.40137970334
 21
1773.321890976123
 31
0.0
  0
LINE
  5
8053
330
1F
100
AcDbEntity
  8
1
  6
HIDDEN
100
AcDbLine
 10
16611.40137970334
 20
1798.321890976123
 30
0.0
 11
16583.40137970334
 21
1798.321890976124
 31
0.0
  0
LINE
  5
8054
330
1F
100
AcDbEntity
  8
1
100
AcDbLine
 10
16581.40137970334
 20
2075.821890976124
 30
0.0
 11
16581.40137970334
 21
1800.821890976123
 31
0.0
  0
CIRCLE
  5
813F
330
1F
100
AcDbEntity
  8
1
100
AcDbCircle
 10
17746.56150409775
 20
1987.497509545587
 30
0.0
 40
13.5
  0
LINE
  5
8140
330
1F
100
AcDbEntity
  8
1
  6
CENTER
 48
0.5
100
AcDbLine
 10
17727.85194081029
 20
1992.510721919204
 30
0.0
 11
17765.27106738523
 21
1982.484297171973
 31
0.0
  0
LINE
  5
8151
330
1F
100
AcDbEntity
  8
1
100
AcDbLine
 10
18256.3188423791
 20
2110.821890976124
 30
0.0
 11
18256.31884237909
 21
1765.821890976123
 31
0.0
  0
LINE
  5
8169
330
1F
100
AcDbEntity
  8
1
  6
HIDDEN
100
AcDbLine
 10
18290.3188423791
 20
2141.821890976124
 30
0.0
 11
18258.3188423791
 21
2141.821890976122
 31
0.0
  0
LINE
  5
816A
330
1F
100
AcDbEntity
  8
1
  6
HIDDEN
100
AcDbLine
 10
18290.3188423791
 20
2114.821890976124
 30
0.0
 11
18258.31884237909
 21
2114.821890976123
 31
0.0
  0
LINE
  5
816B
330
1F
100
AcDbEntity
  8
1
  6
HIDDEN
100
AcDbLine
 10
18290.3188423791
 20
1761.821890976123
 30
0.0
 11
18258.31884237909
 21
1761.821890976125
 31
0.0
  0
LINE
  5
816C
330
1F
100
AcDbEntity
  8
1
  6
HIDDEN
100
AcDbLine
 10
18290.3188423791
 20
1734.821890976123
 30
0.0
 11
18258.31884237909
 21
1734.821890976124
 31
0.0
  0
LINE
  5
81F4
330
1F
100
AcDbEntity
  8
1
  6
CENTER
100
AcDbLine
 10
12470.14969942415
 20
1390.490891771112
 30
0.0
 11
12462.592069993
 21
1428.48566067717
 31
0.0
  0
LINE
  5
820F
330
1F
100
AcDbEntity
  8
1
100
AcDbLine
 10
12845.48179704979
 20
1396.119440937447
 30
0.0
 11
12845.48179704981
 21
1001.119440937447
 31
0.0
  0
LINE
  5
821B
330
1F
100
AcDbEntity
  8
1
  6
HIDDEN
100
AcDbLine
 10
12881.4817970498
 20
1427.119440937446
 30
0.0
 11
12848.48179704979
 21
1427.119440937446
 31
0.0
  0
LINE
  5
821C
330
1F
100
AcDbEntity
  8
1
  6
HIDDEN
100
AcDbLine
 10
12881.4817970498
 20
1400.119440937446
 30
0.0
 11
12848.48179704979
 21
1400.119440937446
 31
0.0
  0
LINE
  5
821D
330
1F
100
AcDbEntity
  8
1
  6
HIDDEN
100
AcDbLine
 10
12881.4817970498
 20
970.1194409374471
 30
0.0
 11
12848.48179704981
 21
970.1194409374474
 31
0.0
  0
LINE
  5
821E
330
1F
100
AcDbEntity
  8
1
  6
HIDDEN
100
AcDbLine
 10
12881.4817970498
 20
997.1194409374472
 30
0.0
 11
12848.48179704981
 21
997.1194409374474
 31
0.0
  0
CIRCLE
  5
8255
330
1F
100
AcDbEntity
  8
1
100
AcDbCircle
 10
13292.9010787612
 20
1434.007908234222
 30
0.0
 40
16.5
  0
LINE
  5
8256
330
1F
100
AcDbEntity
  8
1
  6
CENTER
100
AcDbLine
 10
13298.32285639659
 20
1406.750791410313
 30
0.0
 11
13287.47930112581
 21
1461.265025058133
 31
0.0
  0
LINE
  5
8274
330
1F
100
AcDbEntity
  8
1
  6
HIDDEN
100
AcDbLine
 10
13779.52170522905
 20
1455.119440937447
 30
0.0
 11
13742.52170522905
 21
1455.119440937448
 31
0.0
  0
LINE
  5
8275
330
1F
100
AcDbEntity
  8
1
  6
HIDDEN
100
AcDbLine
 10
13779.52170522905
 20
1422.119440937447
 30
0.0
 11
13742.52170522905
 21
1422.119440937447
 31
0.0
  0
LINE
  5
8276
330
1F
100
AcDbEntity
  8
1
  6
HIDDEN
100
AcDbLine
 10
13779.52170522905
 20
942.1194409374477
 30
0.0
 11
13742.52170522905
 21
942.1194409374477
 31
0.0
  0
LINE
  5
8277
330
1F
100
AcDbEntity
  8
1
  6
HIDDEN
100
AcDbLine
 10
13779.52170522905
 20
975.1194409374475
 30
0.0
 11
13742.52170522905
 21
975.1194409374472
 31
0.0
  0
LINE
  5
82BB
330
1F
100
AcDbEntity
  8
1
100
AcDbLine
 10
13739.52170522905
 20
1418.619440937447
 30
0.0
 11
13739.52170522905
 21
978.6194409374475
 31
0.0
  0
CIRCLE
  5
82DF
330
1F
100
AcDbEntity
  8
1
100
AcDbCircle
 10
14338.56375031641
 20
1463.43146664632
 30
0.0
 40
16.5
  0
LINE
  5
82E0
330
1F
100
AcDbEntity
  8
1
  6
CENTER
100
AcDbLine
 10
14343.07033675499
 20
1440.775326669006
 30
0.0
 11
14334.05716387785
 21
1486.087606623635
 31
0.0
  0
LINE
  5
830E
330
1F
100
AcDbEntity
  8
1
  6
HIDDEN
100
AcDbLine
 10
14928.47926795766
 20
1452.119440937447
 30
0.0
 11
14885.47926795767
 21
1452.119440937447
 31
0.0
  0
LINE
  5
8312
330
1F
100
AcDbEntity
  8
1
  6
HIDDEN
100
AcDbLine
 10
14928.47926795767
 20
912.1194409374471
 30
0.0
 11
14885.47926795767
 21
912.1194409374471
 31
0.0
  0
LINE
  5
8314
330
1F
100
AcDbEntity
  8
1
  6
HIDDEN
100
AcDbLine
 10
14928.47926795766
 20
1485.119440937447
 30
0.0
 11
14885.47926795767
 21
1485.119440937446
 31
0.0
  0
LINE
  5
8316
330
1F
100
AcDbEntity
  8
1
  6
HIDDEN
100
AcDbLine
 10
14928.47926795767
 20
945.1194409374471
 30
0.0
 11
14885.47926795767
 21
945.1194409374471
 31
0.0
  0
LINE
  5
8318
330
1F
100
AcDbEntity
  8
1
100
AcDbLine
 10
14882.47926795767
 20
1446.119440937447
 30
0.0
 11
14882.47926795767
 21
951.1194409374477
 31
0.0
  0
MTEXT
  5
970B
330
1F
100
AcDbEntity
  8
1
100
AcDbMText
 10
15640.33207231276
 20
2223.051786583881
 30
0.0
 40
40.0
 41
366.9335000018478
 71
     1
 72
     5
  1
40A-20K
 73
     1
 44
1.0
1001
ACAD
1000
MTEXTBEGIN
1070
    73
1070
     1
1070
    44
1040
1.0
1070
    74
1070
     0
1000
MTEXTEND
  0
MTEXT
  5
970C
330
1F
100
AcDbEntity
  8
1
100
AcDbMText
 10
12397.88557167136
 20
2234.649300458943
 30
0.0
 40
40.0
 41
363.071103552209
 71
     1
 72
     5
  1
10A-20K
 73
     1
 44
1.0
1001
ACAD
1000
MTEXTBEGIN
1070
    73
1070
     1
1070
    44
1040
1.0
1070
    74
1070
     0
1000
MTEXTEND
  0
MTEXT
  5
970D
330
1F
100
AcDbEntity
  8
1
100
AcDbMText
 10
13620.0205631311
 20
2223.743079705049
 30
0.0
 40
40.0
 41
368.9559070171847
 71
     1
 72
     5
  1
20A-20K
 73
     1
 44
1.0
1001
ACAD
1000
MTEXTBEGIN
1070
    73
1070
     1
1070
    44
1040
1.0
1070
    74
1070
     0
1000
MTEXTEND
  0
MTEXT
  5
970E
330
1F
100
AcDbEntity
  8
1
100
AcDbMText
 10
14265.15819315091
 20
2224.663647036399
 30
0.0
 40
40.0
 41
370.6915511062466
 71
     1
 72
     5
  1
25A-20K
 73
     1
 44
1.0
1001
ACAD
1000
MTEXTBEGIN
1070
    73
1070
     1
1070
    44
1040
1.0
1070
    74
1070
     0
1000
MTEXTEND
  0
MTEXT
  5
970F
330
1F
100
AcDbEntity
  8
1
100
AcDbMText
 10
14936.50599813336
 20
2225.0801627448
 30
0.0
 40
40.0
 41
368.6739730679073
 71
     1
 72
     5
  1
32A-20K
 73
     1
 44
1.0
1001
ACAD
1000
MTEXTBEGIN
1070
    73
1070
     1
1070
    44
1040
1.0
1070
    74
1070
     0
1000
MTEXTEND
  0
MTEXT
  5
9710
330
1F
100
AcDbEntity
  8
1
100
AcDbMText
 10
16340.01198492802
 20
2224.02206265631
 30
0.0
 40
40.0
 41
376.115475480589
 71
     1
 72
     5
  1
50A-20K
 73
     1
 44
1.0
1001
ACAD
1000
MTEXTBEGIN
1070
    73
1070
     1
1070
    44
1040
1.0
1070
    74
1070
     0
1000
MTEXTEND
  0
MTEXT
  5
9711
330
1F
100
AcDbEntity
  8
1
100
AcDbMText
 10
13127.89370353029
 20
1663.42985701393
 30
0.0
 40
50.0
 41
514.29252625287
 71
     1
 72
     5
  1
100A-20K
 73
     1
 44
1.0
1001
ACAD
1000
MTEXTBEGIN
1070
    73
1070
     1
1070
    44
1040
1.0
1070
    74
1070
     0
1000
MTEXTEND
  0
MTEXT
  5
9712
330
1F
100
AcDbEntity
  8
1
100
AcDbMText
 10
13862.74652137958
 20
1665.00216453115
 30
0.0
 40
50.0
 41
507.9415250592465
 71
     1
 72
     5
  1
125A-20K
 73
     1
 44
1.0
1001
ACAD
1000
MTEXTBEGIN
1070
    73
1070
     1
1070
    44
1040
1.0
1070
    74
1070
     0
1000
MTEXTEND
  0
MTEXT
  5
9713
330
1F
100
AcDbEntity
  8
1
100
AcDbMText
 10
14544.56464711402
 20
1664.226650180433
 30
0.0
 40
50.0
 41
515.0377969402406
 71
     1
 72
     5
  1
150A-20K
 73
     1
 44
1.0
1001
ACAD
1000
MTEXTBEGIN
1070
    73
1070
     1
1070
    44
1040
1.0
1070
    74
1070
     0
1000
MTEXTEND
  0
MTEXT
  5
9714
330
1F
100
AcDbEntity
  8
1
100
AcDbMText
 10
12282.13774305384
 20
764.2087616011267
 30
0.0
 40
50.0
 41
516.5093077859693
 71
     1
 72
     5
  1
300A-20K
 73
     1
 44
1.0
1001
ACAD
1000
MTEXTBEGIN
1070
    73
1070
     1
1070
    44
1040
1.0
1070
    74
1070
     0
1000
MTEXTEND
  0
MTEXT
  5
9715
330
1F
100
AcDbEntity
  8
1
100
AcDbMText
 10
12995.00692909678
 20
2233.862170064025
 30
0.0
 40
40.0
 41
364.5680458721853
 71
     1
 72
     5
  1
15A-20K
 73
     1
 44
1.0
1001
ACAD
1000
MTEXTBEGIN
1070
    73
1070
     1
1070
    44
1040
1.0
1070
    74
1070
     0
1000
MTEXTEND
  0
MTEXT
  5
9716
330
1F
100
AcDbEntity
  8
1
100
AcDbMText
 10
17079.28400137299
 20
2221.25279743639
 30
0.0
 40
40.0
 41
376.2748082360924
 71
     1
 72
     5
  1
65A-20K
 73
     1
 44
1.0
1001
ACAD
1000
MTEXTBEGIN
1070
    73
1070
     1
1070
    44
1040
1.0
1070
    74
1070
     0
1000
MTEXTEND
  0
MTEXT
  5
9717
330
1F
100
AcDbEntity
  8
1
100
AcDbMText
 10
17815.025292512
 20
2223.913800554074
 30
0.0
 40
40.0
 41
369.062643320536
 71
     1
 72
     5
  1
80A-20K
 73
     1
 44
1.0
1001
ACAD
1000
MTEXTBEGIN
1070
    73
1070
     1
1070
    44
1040
1.0
1070
    74
1070
     0
1000
MTEXTEND
  0
MTEXT
  5
9718
330
1F
100
AcDbEntity
  8
1
100
AcDbMText
 10
13494.40577909761
 20
-5473.850765067724
 30
0.0
 40
50.0
 41
191.396
 71
     1
 72
     5
  1
1350A-20K
 73
     1
 44
1.0
1001
ACAD
1000
MTEXTBEGIN
1070
    73
1070
     1
1070
    44
1040
1.0
1070
    74
1070
     0
1000
MTEXTEND
  0
MTEXT
  5
9719
330
1F
100
AcDbEntity
  8
1
100
AcDbMText
 10
17038.40390764862
 20
-3473.850765067709
 30
0.0
 40
50.0
 41
191.396
 71
     1
 72
     5
  1
1200A-20K
 73
     1
 44
1.0
1001
ACAD
1000
MTEXTBEGIN
1070
    73
1070
     1
1070
    44
1040
1.0
1070
    74
1070
     0
1000
MTEXTEND
  0
LINE
  5
971A
330
1F
100
AcDbEntity
  8
1
100
AcDbLine
 10
12228.33035205007
 20
-5545.85044337415
 30
0.0
 11
18428.33035205007
 21
-5545.85044337415
 31
0.0
  0
LINE
  5
971B
330
1F
100
AcDbEntity
  8
1
100
AcDbLine
 10
12228.33035205007
 20
-1895.850443374154
 30
0.0
 11
18428.33035205007
 21
-1895.850443374152
 31
0.0
  0
LINE
  5
971C
330
1F
100
AcDbEntity
  8
1
100
AcDbLine
 10
12228.33035205007
 20
-495.8504433741491
 30
0.0
 11
18428.33035205007
 21
-495.8504433741491
 31
0.0
  0
LINE
  5
971D
330
1F
100
AcDbEntity
  8
1
100
AcDbLine
 10
12228.33035205007
 20
704.1495566258528
 30
0.0
 11
18428.33035205006
 21
704.1495566258528
 31
0.0
  0
LINE
  5
971E
330
1F
100
AcDbEntity
  8
1
100
AcDbLine
 10
12228.33035205007
 20
1604.149556625852
 30
0.0
 11
18428.33035205006
 21
1604.149556625852
 31
0.0
  0
LINE
  5
971F
330
1F
100
AcDbEntity
  8
1
100
AcDbLine
 10
12228.33035205007
 20
2174.149556625843
 30
0.0
 11
18428.33035205006
 21
2174.149556625843
 31
0.0
  0
LINE
  5
9720
330
1F
100
AcDbEntity
  8
1
100
AcDbLine
 10
12228.33035205007
 20
2474.149556625844
 30
0.0
 11
18428.33035205006
 21
2474.149556625844
 31
0.0
  0
LINE
  5
9721
330
1F
100
AcDbEntity
  8
1
100
AcDbLine
 10
15228.33035205007
 20
-5545.85044337415
 30
0.0
 11
15228.33035205007
 21
-3545.850443374151
 31
0.0
  0
LINE
  5
9722
330
1F
100
AcDbEntity
  8
1
100
AcDbLine
 10
12228.33035205007
 20
-5545.85044337415
 30
0.0
 11
12228.33035205006
 21
2474.149556625844
 31
0.0
  0
LINE
  5
9723
330
1F
100
AcDbEntity
  8
1
100
AcDbLine
 10
12978.33035205006
 20
704.1495566258545
 30
0.0
 11
12978.33035205006
 21
1604.149556625855
 31
0.0
  0
LINE
  5
9724
330
1F
100
AcDbEntity
  8
1
100
AcDbLine
 10
13928.33035205006
 20
704.1495566258563
 30
0.0
 11
13928.33035205006
 21
1604.149556625856
 31
0.0
  0
LINE
  5
9725
330
1F
100
AcDbEntity
  8
1
100
AcDbLine
 10
18428.33035205007
 20
-5545.85044337415
 30
0.0
 11
18428.33035205006
 21
2474.149556625844
 31
0.0
  0
LINE
  5
9726
330
1F
100
AcDbEntity
  8
1
100
AcDbLine
 10
16778.33035205007
 20
-1895.850443374152
 30
0.0
 11
16778.33035205007
 21
2174.149556625843
 31
0.0
  0
LINE
  5
9727
330
1F
100
AcDbEntity
  8
1
100
AcDbLine
 10
15178.33035205007
 20
-1895.850443374154
 30
0.0
 11
15178.33035205006
 21
2174.149556625842
 31
0.0
  0
LINE
  5
9728
330
1F
100
AcDbEntity
  8
1
100
AcDbLine
 10
13678.33035205007
 20
-1895.850443374154
 30
0.0
 11
13678.33035205006
 21
704.1495566258528
 31
0.0
  0
LINE
  5
9729
330
1F
100
AcDbEntity
  8
1
100
AcDbLine
 10
13678.33035205006
 20
1604.149556625855
 30
0.0
 11
13678.33035205006
 21
2174.149556625842
 31
0.0
  0
LINE
  5
972A
330
1F
100
AcDbEntity
  8
1
100
AcDbLine
 10
16128.33035205007
 20
-3545.850443374151
 30
0.0
 11
16128.33035205006
 21
-1895.850443374154
 31
0.0
  0
LINE
  5
972B
330
1F
100
AcDbEntity
  8
1
100
AcDbLine
 10
14128.33035205007
 20
-3545.850443374155
 30
0.0
 11
14128.33035205007
 21
-1895.850443374154
 31
0.0
  0
MTEXT
  5
972C
330
1F
100
AcDbEntity
  8
1
100
AcDbMText
 10
14892.86225835406
 20
-3473.850765067722
 30
0.0
 40
50.0
 41
191.396
 71
     1
 72
     5
  1
1100A-20K
 73
     1
 44
1.0
1001
ACAD
1000
MTEXTBEGIN
1070
    73
1070
     1
1070
    44
1040
1.0
1070
    74
1070
     0
1000
MTEXTEND
  0
MTEXT
  5
972D
330
1F
100
AcDbEntity
  8
1
100
AcDbMText
 10
12931.37501541296
 20
-3473.850765067722
 30
0.0
 40
50.0
 41
191.396
 71
     1
 72
     5
  1
1000A-20K
 73
     1
 44
1.0
1001
ACAD
1000
MTEXTBEGIN
1070
    73
1070
     1
1070
    44
1040
1.0
1070
    74
1070
     0
1000
MTEXTEND
  0
MTEXT
  5
972F
330
1F
100
AcDbEntity
  8
1
100
AcDbMText
 10
17413.63389569091
 20
-1829.640351458753
 30
0.0
 40
50.0
 41
191.396
 71
     1
 72
     5
  1
900A-20K
 73
     1
 44
1.0
1001
ACAD
1000
MTEXTBEGIN
1070
    73
1070
     1
1070
    44
1040
1.0
1070
    74
1070
     0
1000
MTEXTEND
  0
MTEXT
  5
9730
330
1F
100
AcDbEntity
  8
1
100
AcDbMText
 10
15788.10485174783
 20
-1829.640351458753
 30
0.0
 40
50.0
 41
191.396
 71
     1
 72
     5
  1
850A-20K
 73
     1
 44
1.0
1001
ACAD
1000
MTEXTBEGIN
1070
    73
1070
     1
1070
    44
1040
1.0
1070
    74
1070
     0
1000
MTEXTEND
  0
MTEXT
  5
9731
330
1F
100
AcDbEntity
  8
1
100
AcDbMText
 10
14242.22998854494
 20
-1829.640351458753
 30
0.0
 40
50.0
 41
191.396
 71
     1
 72
     5
  1
800A-20K
 73
     1
 44
1.0
1001
ACAD
1000
MTEXTBEGIN
1070
    73
1070
     1
1070
    44
1040
1.0
1070
    74
1070
     0
1000
MTEXTEND
  0
MTEXT
  5
9732
330
1F
100
AcDbEntity
  8
1
100
AcDbMText
 10
12767.43219918439
 20
-1829.640351458753
 30
0.0
 40
50.0
 41
191.396
 71
     1
 72
     5
  1
750A-20K
 73
     1
 44
1.0
1001
ACAD
1000
MTEXTBEGIN
1070
    73
1070
     1
1070
    44
1040
1.0
1070
    74
1070
     0
1000
MTEXTEND
  0
MTEXT
  5
9733
330
1F
100
AcDbEntity
  8
1
100
AcDbMText
 10
17414.35630557999
 20
-429.6403514587455
 30
0.0
 40
50.0
 41
191.396
 71
     1
 72
     5
  1
700A-20K
 73
     1
 44
1.0
1001
ACAD
1000
MTEXTBEGIN
1070
    73
1070
     1
1070
    44
1040
1.0
1070
    74
1070
     0
1000
MTEXTEND
  0
MTEXT
  5
9734
330
1F
100
AcDbEntity
  8
1
100
AcDbMText
 10
15792.39286331761
 20
-429.6403514587437
 30
0.0
 40
50.0
 41
191.396
 71
     1
 72
     5
  1
650A-20K
 73
     1
 44
1.0
1001
ACAD
1000
MTEXTBEGIN
1070
    73
1070
     1
1070
    44
1040
1.0
1070
    74
1070
     0
1000
MTEXTEND
  0
MTEXT
  5
9735
330
1F
100
AcDbEntity
  8
1
100
AcDbMText
 10
14239.87768676419
 20
-429.6403514587543
 30
0.0
 40
50.0
 41
191.396
 71
     1
 72
     5
  1
600A-20K
 73
     1
 44
1.0
1001
ACAD
1000
MTEXTBEGIN
1070
    73
1070
     1
1070
    44
1040
1.0
1070
    74
1070
     0
1000
MTEXTEND
  0
MTEXT
  5
9736
330
1F
100
AcDbEntity
  8
1
100
AcDbMText
 10
12762.30772648681
 20
-429.6403514587543
 30
0.0
 40
50.0
 41
191.396
 71
     1
 72
     5
  1
550A-20K
 73
     1
 44
1.0
1001
ACAD
1000
MTEXTBEGIN
1070
    73
1070
     1
1070
    44
1040
1.0
1070
    74
1070
     0
1000
MTEXTEND
  0
MTEXT
  5
9737
330
1F
100
AcDbEntity
  8
1
100
AcDbMText
 10
17418.86819937313
 20
770.3596485412417
 30
0.0
 40
50.0
 41
191.396
 71
     1
 72
     5
  1
500A-20K
 73
     1
 44
1.0
1001
ACAD
1000
MTEXTBEGIN
1070
    73
1070
     1
1070
    44
1040
1.0
1070
    74
1070
     0
1000
MTEXTEND
  0
MTEXT
  5
9738
330
1F
100
AcDbEntity
  8
1
100
AcDbMText
 10
15786.53862315657
 20
770.3596485412434
 30
0.0
 40
50.0
 41
191.396
 71
     1
 72
     5
  1
450A-20K
 73
     1
 44
1.0
1001
ACAD
1000
MTEXTBEGIN
1070
    73
1070
     1
1070
    44
1040
1.0
1070
    74
1070
     0
1000
MTEXTEND
  0
MTEXT
  5
9739
330
1F
100
AcDbEntity
  8
1
100
AcDbMText
 10
14332.2109627884
 20
770.3596485412434
 30
0.0
 40
50.0
 41
540.934438749212
 71
     1
 72
     5
  1
400A-20K
 73
     1
 44
1.0
1001
ACAD
1000
MTEXTBEGIN
1070
    73
1070
     1
1070
    44
1040
1.0
1070
    74
1070
     0
1000
MTEXTEND
  0
MTEXT
  5
973A
330
1F
100
AcDbEntity
  8
1
100
AcDbMText
 10
13252.36082330867
 20
770.3596485412434
 30
0.0
 40
50.0
 41
530.4610863637092
 71
     1
 72
     5
  1
350A-20K
 73
     1
 44
1.0
1001
ACAD
1000
MTEXTBEGIN
1070
    73
1070
     1
1070
    44
1040
1.0
1070
    74
1070
     0
1000
MTEXTEND
  0
LINE
  5
973B
330
1F
100
AcDbEntity
  8
1
100
AcDbLine
 10
17603.33035205006
 20
2474.149556625844
 30
0.0
 11
17603.33035205006
 21
1604.149556625852
 31
0.0
  0
LINE
  5
973C
330
1F
100
AcDbEntity
  8
1
100
AcDbLine
 10
15978.33035205006
 20
2174.149556625845
 30
0.0
 11
15978.33035205006
 21
1604.149556625852
 31
0.0
  0
LINE
  5
973D
330
1F
100
AcDbEntity
  8
1
100
AcDbLine
 10
14428.33035205006
 20
2174.149556625845
 30
0.0
 11
14428.33035205006
 21
1604.149556625852
 31
0.0
  0
MTEXT
  5
973E
330
1F
100
AcDbEntity
  8
1
100
AcDbMText
 10
17796.72237944069
 20
1666.160859590671
 30
0.0
 40
50.0
 41
508.7916280346091
 71
     1
 72
     5
  1
250A-20K
 73
     1
 44
1.0
1001
ACAD
1000
MTEXTBEGIN
1070
    73
1070
     1
1070
    44
1040
1.0
1070
    74
1070
     0
1000
MTEXTEND
  0
MTEXT
  5
973F
330
1F
100
AcDbEntity
  8
1
100
AcDbMText
 10
16994.01867728946
 20
1666.018504255285
 30
0.0
 40
50.0
 41
509.4288973322383
 71
     1
 72
     5
  1
225A-20K
 73
     1
 44
1.0
1001
ACAD
1000
MTEXTBEGIN
1070
    73
1070
     1
1070
    44
1040
1.0
1070
    74
1070
     0
1000
MTEXTEND
  0
MTEXT
  5
9740
330
1F
100
AcDbEntity
  8
1
100
AcDbMText
 10
16183.42283328224
 20
1666.870988768109
 30
0.0
 40
50.0
 41
517.4790868874915
 71
     1
 72
     5
  1
200A-20K
 73
     1
 44
1.0
1001
ACAD
1000
MTEXTBEGIN
1070
    73
1070
     1
1070
    44
1040
1.0
1070
    74
1070
     0
1000
MTEXTEND
  0
MTEXT
  5
9741
330
1F
100
AcDbEntity
  8
1
100
AcDbMText
 10
15388.77601443652
 20
1665.015249380203
 30
0.0
 40
50.0
 41
515.2134634992509
 71
     1
 72
     5
  1
175A-20K
 73
     1
 44
1.0
1001
ACAD
1000
MTEXTBEGIN
1070
    73
1070
     1
1070
    44
1040
1.0
1070
    74
1070
     0
1000
MTEXTEND
  0
MTEXT
  5
9742
330
1F
100
AcDbEntity
  8
1
100
AcDbMText
 10
12421.0396429756
 20
1663.42985701393
 30
0.0
 40
50.0
 41
468.3111010330911
 71
     1
 72
     5
  1
90A-20K
 73
     1
 44
1.0
1001
ACAD
1000
MTEXTBEGIN
1070
    73
1070
     1
1070
    44
1040
1.0
1070
    74
1070
     0
1000
MTEXTEND
  0
LINE
  5
9743
330
1F
100
AcDbEntity
  8
1
100
AcDbLine
 10
12228.33035205007
 20
-3545.850443374151
 30
0.0
 11
18428.33035205007
 21
-3545.850443374151
 31
0.0
  0
MTEXT
  5
9744
330
1F
100
AcDbEntity
  8
1
100
AcDbMText
 10
16585.44564039827
 20
-5473.850765067726
 30
0.0
 40
50.0
 41
191.396
 71
     1
 72
     5
  1
1500A-20K
 73
     1
 44
1.0
1001
ACAD
1000
MTEXTBEGIN
1070
    73
1070
     1
1070
    44
1040
1.0
1070
    74
1070
     0
1000
MTEXTEND
  0
LINE
  5
9747
330
1F
100
AcDbEntity
  8
1
100
AcDbLine
 10
12228.33035205007
 20
2474.149556625844
 30
0.0
 11
12228.33035205006
 21
2174.149556625843
 31
0.0
  0
LINE
  5
9748
330
1F
100
AcDbEntity
  8
1
100
AcDbLine
 10
12828.33035205007
 20
2474.149556625844
 30
0.0
 11
12828.33035205006
 21
2174.149556625843
 31
0.0
  0
LINE
  5
9749
330
1F
100
AcDbEntity
  8
1
100
AcDbLine
 10
13428.33035205007
 20
2474.149556625838
 30
0.0
 11
13428.33035205006
 21
2174.149556625836
 31
0.0
  0
LINE
  5
974A
330
1F
100
AcDbEntity
  8
1
100
AcDbLine
 10
14078.33035205007
 20
2474.149556625829
 30
0.0
 11
14078.33035205006
 21
2174.149556625829
 31
0.0
  0
LINE
  5
974B
330
1F
100
AcDbEntity
  8
1
100
AcDbLine
 10
14728.33035205007
 20
2474.149556625822
 30
0.0
 11
14728.33035205006
 21
2174.149556625822
 31
0.0
  0
LINE
  5
974C
330
1F
100
AcDbEntity
  8
1
100
AcDbLine
 10
15428.33035205007
 20
2474.149556625813
 30
0.0
 11
15428.33035205006
 21
2174.149556625813
 31
0.0
  0
LINE
  5
974D
330
1F
100
AcDbEntity
  8
1
100
AcDbLine
 10
16128.33035205007
 20
2474.149556625804
 30
0.0
 11
16128.33035205006
 21
2174.149556625804
 31
0.0
  0
LINE
  5
974E
330
1F
100
AcDbEntity
  8
1
100
AcDbLine
 10
16828.33035205006
 20
2474.149556625795
 30
0.0
 11
16828.33035205006
 21
2174.149556625795
 31
0.0
  0
OLE2FRAME
  5
9782
330
1F
100
AcDbEntity
  8
1
100
AcDbOle2Frame
 70
     2
 73
     1
 90
        0
1001
ACAD
1000
OLEBEGIN
1070
    70
1070
     1
1070
    71
1070
     1
1070
    40
1040
0.0
1070
    41
1040
3431.27481027005
1070
    42
1040
2204.857031432308
1070
    72
1070
     0
1070
     3
1000

1070
    90
1071
        0
1070
    43
1040
0.0
1070
     4
1000

1070
    91
1071
        0
1070
    44
1040
0.0
1000
OLEEND
  0
LINE
  5
9786
330
1F
100
AcDbEntity
  8
1
100
AcDbLine
 10
12953.33035205006
 20
2174.149556625843
 30
0.0
 11
12953.33035205006
 21
1604.149556625852
 31
0.0
  0
LINE
  5
9910
330
1F
100
AcDbEntity
  8
1
  6
HIDDEN
100
AcDbLine
 10
16611.40137970334
 20
2078.321890976123
 30
0.0
 11
16583.40137970334
 21
2078.321890976123
 31
0.0
  0
LINE
  5
9920
330
1F
100
AcDbEntity
  8
1
  6
HIDDEN
100
AcDbLine
 10
16627.40137970334
 20
2047.321890976124
 30
0.0
 11
16581.40137970334
 21
2047.321890976124
 31
0.0
  0
MTEXT
  5
9980
330
1F
100
AcDbEntity
  8
1
100
AcDbMText
 10
14841.27164745014
 20
779.993746635491
 30
0.0
 40
40.0
 41
160.415524151791
 71
     1
 72
     5
  1
SOH-A
 73
     1
 44
1.0
1001
ACAD
1000
MTEXTBEGIN
1070
    73
1070
     1
1070
    44
1040
1.0
1070
    74
1070
     0
1000
MTEXTEND
  0
MTEXT
  5
998B
330
1F
100
AcDbEntity
  8
1
100
AcDbMText
 10
12531.72144741074
 20
2266.97068253406
 30
0.0
 40
25.0
 41
160.415524151791
 71
     1
 72
     5
  1
SOH-A
 73
     1
 44
1.0
1001
ACAD
1000
MTEXTBEGIN
1070
    73
1070
     1
1070
    44
1040
1.0
1070
    74
1070
     0
1000
MTEXTEND
  0
MTEXT
  5
998C
330
1F
100
AcDbEntity
  8
1
100
AcDbMText
 10
12685.59342727038
 20
1738.456597155904
 30
0.0
 40
40.0
 41
160.415524151791
 71
     1
 72
     5
  1
SOH-A
 73
     1
 44
1.0
1001
ACAD
1000
MTEXTBEGIN
1070
    73
1070
     1
1070
    44
1040
1.0
1070
    74
1070
     0
1000
MTEXTEND
  0
MTEXT
  5
998D
330
1F
100
AcDbEntity
  8
1
100
AcDbMText
 10
13125.7304188515
 20
2266.732103491078
 30
0.0
 40
25.0
 41
160.415524151791
 71
     1
 72
     5
  1
SOH-A
 73
     1
 44
1.0
1001
ACAD
1000
MTEXTBEGIN
1070
    73
1070
     1
1070
    44
1040
1.0
1070
    74
1070
     0
1000
MTEXTEND
  0
MTEXT
  5
998E
330
1F
100
AcDbEntity
  8
1
100
AcDbMText
 10
13765.86957849096
 20
2263.478310079193
 30
0.0
 40
25.0
 41
160.415524151791
 71
     1
 72
     5
  1
SOH-A
 73
     1
 44
1.0
1001
ACAD
1000
MTEXTBEGIN
1070
    73
1070
     1
1070
    44
1040
1.0
1070
    74
1070
     0
1000
MTEXTEND
  0
MTEXT
  5
998F
330
1F
100
AcDbEntity
  8
1
100
AcDbMText
 10
14398.22262846264
 20
2262.285435224983
 30
0.0
 40
25.0
 41
160.415524151791
 71
     1
 72
     5
  1
SOH-A
 73
     1
 44
1.0
1001
ACAD
1000
MTEXTBEGIN
1070
    73
1070
     1
1070
    44
1040
1.0
1070
    74
1070
     0
1000
MTEXTEND
  0
MTEXT
  5
9990
330
1F
100
AcDbEntity
  8
1
100
AcDbMText
 10
15076.63503082323
 20
2260.300669954569
 30
0.0
 40
25.0
 41
160.415524151791
 71
     1
 72
     5
  1
SOH-A
 73
     1
 44
1.0
1001
ACAD
1000
MTEXTBEGIN
1070
    73
1070
     1
1070
    44
1040
1.0
1070
    74
1070
     0
1000
MTEXTEND
  0
MTEXT
  5
9991
330
1F
100
AcDbEntity
  8
1
100
AcDbMText
 10
15785.07114002672
 20
2260.06209091159
 30
0.0
 40
25.0
 41
160.415524151791
 71
     1
 72
     5
  1
SOH-A
 73
     1
 44
1.0
1001
ACAD
1000
MTEXTBEGIN
1070
    73
1070
     1
1070
    44
1040
1.0
1070
    74
1070
     0
1000
MTEXTEND
  0
MTEXT
  5
9992
330
1F
100
AcDbEntity
  8
1
100
AcDbMText
 10
16497.07855544775
 20
2260.100187915905
 30
0.0
 40
25.0
 41
160.415524151791
 71
     1
 72
     5
  1
SOH-A
 73
     1
 44
1.0
1001
ACAD
1000
MTEXTBEGIN
1070
    73
1070
     1
1070
    44
1040
1.0
1070
    74
1070
     0
1000
MTEXTEND
  0
MTEXT
  5
9993
330
1F
100
AcDbEntity
  8
1
100
AcDbMText
 10
17232.63254587464
 20
2259.145892104667
 30
0.0
 40
25.0
 41
160.415524151791
 71
     1
 72
     5
  1
SOH-A
 73
     1
 44
1.0
1001
ACAD
1000
MTEXTBEGIN
1070
    73
1070
     1
1070
    44
1040
1.0
1070
    74
1070
     0
1000
MTEXTEND
  0
MTEXT
  5
9994
330
1F
100
AcDbEntity
  8
1
100
AcDbMText
 10
18059.13219037057
 20
2251.169375104894
 30
0.0
 40
25.0
 41
160.415524151791
 71
     1
 72
     5
  1
SOH-A
 73
     1
 44
1.0
1001
ACAD
1000
MTEXTBEGIN
1070
    73
1070
     1
1070
    44
1040
1.0
1070
    74
1070
     0
1000
MTEXTEND
  0
MTEXT
  5
9996
330
1F
100
AcDbEntity
  8
1
100
AcDbMText
 10
18215.24965824054
 20
1701.552235701196
 30
0.0
 40
40.0
 41
160.415524151791
 71
     1
 72
     5
  1
SOH-A
 73
     1
 44
1.0
1001
ACAD
1000
MTEXTBEGIN
1070
    73
1070
     1
1070
    44
1040
1.0
1070
    74
1070
     0
1000
MTEXTEND
  0
MTEXT
  5
9998
330
1F
100
AcDbEntity
  8
1
100
AcDbMText
 10
16543.58344223744
 20
1737.377684299352
 30
0.0
 40
40.0
 41
160.415524151791
 71
     1
 72
     5
  1
SOH-A
 73
     1
 44
1.0
1001
ACAD
1000
MTEXTBEGIN
1070
    73
1070
     1
1070
    44
1040
1.0
1070
    74
1070
     0
1000
MTEXTEND
  0
MTEXT
  5
999A
330
1F
100
AcDbEntity
  8
1
100
AcDbMText
 10
14916.40528127321
 20
1738.917379898712
 30
0.0
 40
40.0
 41
160.415524151791
 71
     1
 72
     5
  1
SOH-A
 73
     1
 44
1.0
1001
ACAD
1000
MTEXTBEGIN
1070
    73
1070
     1
1070
    44
1040
1.0
1070
    74
1070
     0
1000
MTEXTEND
  0
MTEXT
  5
999B
330
1F
100
AcDbEntity
  8
1
100
AcDbMText
 10
14134.28390294989
 20
1738.917379898712
 30
0.0
 40
40.0
 41
160.415524151791
 71
     1
 72
     5
  1
SOH-A
 73
     1
 44
1.0
1001
ACAD
1000
MTEXTBEGIN
1070
    73
1070
     1
1070
    44
1040
1.0
1070
    74
1070
     0
1000
MTEXTEND
  0
MTEXT
  5
999C
330
1F
100
AcDbEntity
  8
1
100
AcDbMText
 10
13408.12293709708
 20
1738.917379898712
 30
0.0
 40
40.0
 41
160.415524151791
 71
     1
 72
     5
  1
SOH-A
 73
     1
 44
1.0
1001
ACAD
1000
MTEXTBEGIN
1070
    73
1070
     1
1070
    44
1040
1.0
1070
    74
1070
     0
1000
MTEXTEND
  0
MTEXT
  5
999F
330
1F
100
AcDbEntity
  8
1
100
AcDbMText
 10
13700.88898716443
 20
781.9669289913508
 30
0.0
 40
40.0
 41
160.415524151791
 71
     1
 72
     5
  1
SOH-A
 73
     1
 44
1.0
1001
ACAD
1000
MTEXTBEGIN
1070
    73
1070
     1
1070
    44
1040
1.0
1070
    74
1070
     0
1000
MTEXTEND
1000
ACAD_MTEXT_DEFINED_HEIGHT_BEGIN
1070
    46
1040
78.12571004511255
1000
ACAD_MTEXT_DEFINED_HEIGHT_END
  0
MTEXT
  5
99A0
330
1F
100
AcDbEntity
  8
1
100
AcDbMText
 10
12767.14482909226
 20
777.0996435794987
 30
0.0
 40
40.0
 41
160.415524151791
 71
     1
 72
     5
  1
SOH-A
 73
     1
 44
1.0
1001
ACAD
1000
MTEXTBEGIN
1070
    73
1070
     1
1070
    44
1040
1.0
1070
    74
1070
     0
1000
MTEXTEND
  0
LINE
  5
99A5
330
1F
100
AcDbEntity
  8
1
100
AcDbLine
 10
16778.33035205007
 20
-495.8504433741491
 30
0.0
 11
18428.33035205006
 21
704.1495566258528
 31
0.0
  0
LINE
  5
99A6
330
1F
100
AcDbEntity
  8
1
100
AcDbLine
 10
15178.33035205007
 20
-495.8504433741491
 30
0.0
 11
16778.33035205007
 21
704.149556625852
 31
0.0
  0
LINE
  5
99A9
330
1F
100
AcDbEntity
  8
1
100
AcDbLine
 10
12228.33035205007
 20
-1895.850443374154
 30
0.0
 11
13678.33035205007
 21
-495.8504433741493
 31
0.0
  0
LINE
  5
99AA
330
1F
100
AcDbEntity
  8
1
100
AcDbLine
 10
13678.33035205007
 20
-1895.850443374154
 30
0.0
 11
15178.33035205007
 21
-495.8504433741491
 31
0.0
  0
LINE
  5
99AB
330
1F
100
AcDbEntity
  8
1
100
AcDbLine
 10
15178.33035205007
 20
-1895.850443374154
 30
0.0
 11
16778.33035205007
 21
-495.8504433741491
 31
0.0
  0
LINE
  5
99AC
330
1F
100
AcDbEntity
  8
1
100
AcDbLine
 10
16778.33035205007
 20
-1895.850443374152
 30
0.0
 11
18428.33035205007
 21
-495.8504433741491
 31
0.0
  0
LINE
  5
99AD
330
1F
100
AcDbEntity
  8
1
100
AcDbLine
 10
16128.33035205007
 20
-3545.850443374151
 30
0.0
 11
18428.33035205007
 21
-1895.850443374152
 31
0.0
  0
LINE
  5
99AE
330
1F
100
AcDbEntity
  8
1
100
AcDbLine
 10
14128.33035205007
 20
-3545.850443374155
 30
0.0
 11
16128.33035205006
 21
-1895.850443374154
 31
0.0
  0
LINE
  5
99AF
330
1F
100
AcDbEntity
  8
1
100
AcDbLine
 10
12228.33035205007
 20
-3545.850443374151
 30
0.0
 11
14128.33035205007
 21
-1895.850443374154
 31
0.0
  0
LINE
  5
99B0
330
1F
100
AcDbEntity
  8
1
100
AcDbLine
 10
12228.33035205007
 20
-5545.85044337415
 30
0.0
 11
15228.33035205007
 21
-3545.850443374151
 31
0.0
  0
LINE
  5
99B1
330
1F
100
AcDbEntity
  8
1
100
AcDbLine
 10
15228.33035205007
 20
-5545.85044337415
 30
0.0
 11
18428.33035205007
 21
-3545.850443374151
 31
0.0
  0
CIRCLE
  5
9A00
330
1F
100
AcDbEntity
  8
1
100
AcDbCircle
 10
12478.7927079297
 20
2363.617321746548
 30
0.0
 40
8.9
  0
CIRCLE
  5
9A10
330
1F
100
AcDbEntity
  8
1
100
AcDbCircle
 10
13067.41217612852
 20
2363.617321746548
 30
0.0
 40
11.1
  0
CIRCLE
  5
9A20
330
1F
100
AcDbEntity
  8
1
100
AcDbCircle
 10
13678.434564497
 20
2363.617321746548
 30
0.0
 40
13.85
  0
CIRCLE
  5
9A30
330
1F
100
AcDbEntity
  8
1
100
AcDbCircle
 10
14320.39510656993
 20
2363.617321746548
 30
0.0
 40
17.25
  0
CIRCLE
  5
9A3F
330
1F
100
AcDbEntity
  8
1
100
AcDbCircle
 10
14990.11009510308
 20
2363.617321746548
 30
0.0
 40
21.6
  0
CIRCLE
  5
9A4E
330
1F
100
AcDbEntity
  8
1
100
AcDbCircle
 10
15688.78476345938
 20
2363.617321746548
 30
0.0
 40
24.55
  0
CIRCLE
  5
9A5C
330
1F
100
AcDbEntity
  8
1
100
AcDbCircle
 10
16369.32724312506
 20
2363.617321746547
 30
0.0
 40
30.55
  0
CIRCLE
  5
9A6A
330
1F
100
AcDbEntity
  8
1
100
AcDbCircle
 10
17094.50393707959
 20
2363.617321746548
 30
0.0
 40
38.55
  0
CIRCLE
  5
9A87
330
1F
100
AcDbEntity
  8
1
100
AcDbCircle
 10
12524.99827517284
 20
1938.321890976123
 30
0.0
 40
51.29999999999999
  0
CIRCLE
  5
9A95
330
1F
100
AcDbEntity
  8
1
100
AcDbCircle
 10
13250.60292167805
 20
1938.321890976123
 30
0.0
 40
57.69999999999999
  0
CIRCLE
  5
9AA3
330
1F
100
AcDbEntity
  8
1
100
AcDbCircle
 10
13957.36003241772
 20
1938.321890976123
 30
0.0
 40
70.60000000000002
  0
CIRCLE
  5
9AB1
330
1F
100
AcDbEntity
  8
1
100
AcDbCircle
 10
14690.27530117054
 20
1938.321890976123
 30
0.0
 40
83.29999999999998
  0
CIRCLE
  5
9ACE
330
1F
100
AcDbEntity
  8
1
100
AcDbCircle
 10
16270.41154638935
 20
1938.321890976123
 30
0.0
 40
109.0
  0
CIRCLE
  5
9B1C
330
1F
100
AcDbEntity
  8
1
100
AcDbCircle
 10
17930.08741109269
 20
1938.321890976123
 30
0.0
 40
134.75
  0
CIRCLE
  5
9B37
330
1F
100
AcDbEntity
  8
1
100
AcDbCircle
 10
12508.31530394205
 20
1198.619440937447
 30
0.0
 40
160.5
  0
CIRCLE
  5
9B52
330
1F
100
AcDbEntity
  8
1
100
AcDbCircle
 10
13339.72275604507
 20
1198.619440937447
 30
0.0
 40
179.05
  0
CIRCLE
  5
9B6D
330
1F
100
AcDbEntity
  8
1
100
AcDbCircle
 10
14391.23813726077
 20
1198.619440937447
 30
0.0
 40
204.5
  0
LINE
  5
9CBA
330
1F
100
AcDbEntity
  8
1
100
AcDbLine
 10
13166.19468368066
 20
2410.117321746548
 30
0.0
 11
13166.19468368066
 21
2317.117321746546
 31
0.0
  0
CIRCLE
  5
9D32
330
1F
100
AcDbEntity
  8
1
100
AcDbCircle
 10
13651.91806020251
 20
2337.100817452052
 30
0.0
 40
7.5
  0
LINE
  5
9D33
330
1F
100
AcDbEntity
  8
1
  6
CENTER
 48
0.5
100
AcDbLine
 10
13659.87301149086
 20
2345.055768740404
 30
0.0
 11
13643.96310891416
 21
2329.145866163704
 31
0.0
  0
CIRCLE
  5
9D34
330
1F
100
AcDbEntity
  8
1
100
AcDbCircle
 10
13704.95106879149
 20
2337.100817452054
 30
0.0
 40
7.5
  0
LINE
  5
9D35
330
1F
100
AcDbEntity
  8
1
  6
CENTER
 48
0.5
100
AcDbLine
 10
13696.99611750314
 20
2345.055768740404
 30
0.0
 11
13712.90602007984
 21
2329.145866163708
 31
0.0
  0
CIRCLE
  5
9D36
330
1F
100
AcDbEntity
  8
1
100
AcDbCircle
 10
13704.95106879149
 20
2390.133826041043
 30
0.0
 40
7.5
  0
LINE
  5
9D37
330
1F
100
AcDbEntity
  8
1
  6
CENTER
 48
0.5
100
AcDbLine
 10
13696.99611750314
 20
2382.178874752692
 30
0.0
 11
13712.90602007984
 21
2398.088777329391
 31
0.0
  0
LINE
  5
9D3D
330
1F
100
AcDbEntity
  8
1
100
AcDbLine
 10
13813.83384332011
 20
2383.617321746548
 30
0.0
 11
13813.83384332011
 21
2344.617321746548
 31
0.0
  0
LINE
  5
9D3E
330
1F
100
AcDbEntity
  8
1
100
AcDbLine
 10
13810.56893225604
 20
2343.529018058525
 30
0.0
 11
13813.83384332011
 21
2344.617321746548
 31
0.0
  0
ARC
  5
9D3F
330
1F
100
AcDbEntity
  8
1
100
AcDbCircle
 10
13811.83384332011
 20
2339.734284866323
 30
0.0
 40
4.0
100
AcDbArc
 50
108.4349488229179
 51
180.0
  0
CIRCLE
  5
9D9C
330
1F
100
AcDbEntity
  8
1
100
AcDbCircle
 10
14288.57530141654
 20
2395.437126899944
 30
0.0
 40
9.5
  0
CIRCLE
  5
9D9D
330
1F
100
AcDbEntity
  8
1
100
AcDbCircle
 10
14288.57530141653
 20
2331.797516593158
 30
0.0
 40
9.5
  0
LINE
  5
9D9E
330
1F
100
AcDbEntity
  8
1
  6
CENTER
 48
0.5
100
AcDbLine
 10
14297.41413618136
 20
2340.636351357986
 30
0.0
 11
14279.7364666517
 21
2322.958681828326
 31
0.0
  0
CIRCLE
  5
9D9F
330
1F
100
AcDbEntity
  8
1
100
AcDbCircle
 10
14352.21491172332
 20
2331.79751659315
 30
0.0
 40
9.5
  0
LINE
  5
9DA0
330
1F
100
AcDbEntity
  8
1
  6
CENTER
 48
0.5
100
AcDbLine
 10
14343.37607695849
 20
2340.636351357982
 30
0.0
 11
14361.05374648815
 21
2322.958681828319
 31
0.0
  0
CIRCLE
  5
9DA1
330
1F
100
AcDbEntity
  8
1
100
AcDbCircle
 10
14352.21491172333
 20
2395.43712689994
 30
0.0
 40
9.5
  0
LINE
  5
9DA2
330
1F
100
AcDbEntity
  8
1
  6
CENTER
 48
0.5
100
AcDbLine
 10
14343.3760769585
 20
2386.59829213511
 30
0.0
 11
14361.05374648816
 21
2404.275961664769
 31
0.0
  0
CIRCLE
  5
9E08
330
1F
100
AcDbEntity
  8
1
100
AcDbCircle
 10
14954.75475604376
 20
2398.972660805872
 30
0.0
 40
9.5
  0
CIRCLE
  5
9E09
330
1F
100
AcDbEntity
  8
1
100
AcDbCircle
 10
14954.75475604376
 20
2328.261982687232
 30
0.0
 40
9.5
  0
LINE
  5
9E0A
330
1F
100
AcDbEntity
  8
1
  6
CENTER
 48
0.5
100
AcDbLine
 10
14963.59359080859
 20
2337.100817452061
 30
0.0
 11
14945.91592127892
 21
2319.423147922402
 31
0.0
  0
CIRCLE
  5
9E0B
330
1F
100
AcDbEntity
  8
1
100
AcDbCircle
 10
15025.46543416239
 20
2328.261982687223
 30
0.0
 40
9.5
  0
LINE
  5
9E0C
330
1F
100
AcDbEntity
  8
1
  6
CENTER
 48
0.5
100
AcDbLine
 10
15016.62659939756
 20
2337.100817452054
 30
0.0
 11
15034.30426892722
 21
2319.423147922391
 31
0.0
  0
CIRCLE
  5
9E0D
330
1F
100
AcDbEntity
  8
1
100
AcDbCircle
 10
15025.4654341624
 20
2398.972660805863
 30
0.0
 40
9.5
  0
LINE
  5
9E0E
330
1F
100
AcDbEntity
  8
1
  6
CENTER
 48
0.5
100
AcDbLine
 10
15016.62659939757
 20
2390.133826041032
 30
0.0
 11
15034.30426892724
 21
2407.811495570692
 31
0.0
  0
LINE
  5
9E7B
330
1F
100
AcDbEntity
  8
1
100
AcDbLine
 10
15836.03540485587
 20
2394.617321746547
 30
0.0
 11
15836.03540485587
 21
2332.61732174655
 31
0.0
  0
LINE
  5
9E80
330
1F
100
AcDbEntity
  8
1
100
AcDbLine
 10
15836.03540485587
 20
2332.617321746548
 30
0.0
 11
15831.82272673069
 21
2331.564152215253
 31
0.0
  0
ARC
  5
9E81
330
1F
100
AcDbEntity
  8
1
100
AcDbCircle
 10
15833.03540485587
 20
2326.713439714526
 30
0.0
 40
5.0
100
AcDbArc
 50
104.0362434679378
 51
180.0
  0
CIRCLE
  5
9E82
330
1F
100
AcDbEntity
  8
1
100
AcDbCircle
 10
15651.66165744709
 20
2400.740427758842
 30
0.0
 40
9.5
  0
CIRCLE
  5
9E90
330
1F
100
AcDbEntity
  8
1
100
AcDbCircle
 10
15651.66165744708
 20
2326.494215734259
 30
0.0
 40
9.5
  0
LINE
  5
9E91
330
1F
100
AcDbEntity
  8
1
  6
CENTER
 48
0.5
100
AcDbLine
 10
15660.50049221191
 20
2335.333050499088
 30
0.0
 11
15642.82282268225
 21
2317.655380969423
 31
0.0
  0
CIRCLE
  5
9E92
330
1F
100
AcDbEntity
  8
1
100
AcDbCircle
 10
15725.90786947166
 20
2326.494215734252
 30
0.0
 40
9.5
  0
LINE
  5
9E93
330
1F
100
AcDbEntity
  8
1
  6
CENTER
 48
0.5
100
AcDbLine
 10
15717.06903470683
 20
2335.333050499083
 30
0.0
 11
15734.7467042365
 21
2317.655380969419
 31
0.0
  0
CIRCLE
  5
9E94
330
1F
100
AcDbEntity
  8
1
100
AcDbCircle
 10
15725.90786947167
 20
2400.740427758835
 30
0.0
 40
9.5
  0
LINE
  5
9E95
330
1F
100
AcDbEntity
  8
1
  6
CENTER
 48
0.5
100
AcDbLine
 10
15717.06903470684
 20
2391.901592994005
 30
0.0
 11
15734.7467042365
 21
2409.57926252367
 31
0.0
  0
CIRCLE
  5
9EF8
330
1F
100
AcDbEntity
  8
1
100
AcDbCircle
 10
16313.89447117439
 20
2386.578327688452
 30
0.0
 40
9.5
  0
LINE
  5
9EF9
330
1F
100
AcDbEntity
  8
1
100
AcDbLine
 10
16539.04282027691
 20
2440.117321746547
 30
0.0
 11
16539.04282027691
 21
2287.117321746548
 31
0.0
  0
CIRCLE
  5
9F19
330
1F
100
AcDbEntity
  8
1
100
AcDbCircle
 10
16313.89447117439
 20
2340.656315804642
 30
0.0
 40
9.5
  0
LINE
  5
9F1A
330
1F
100
AcDbEntity
  8
1
  6
CENTER
 48
0.5
100
AcDbLine
 10
16325.44296533078
 20
2345.439858709209
 30
0.0
 11
16302.34597701799
 21
2335.87277290008
 31
0.0
  0
CIRCLE
  5
9F1B
330
1F
100
AcDbEntity
  8
1
100
AcDbCircle
 10
16346.36623718316
 20
2308.184549795871
 30
0.0
 40
9.5
  0
LINE
  5
9F1C
330
1F
100
AcDbEntity
  8
1
  6
CENTER
 48
0.5
100
AcDbLine
 10
16351.14978008772
 20
2319.733043952261
 30
0.0
 11
16341.58269427859
 21
2296.636055639478
 31
0.0
  0
CIRCLE
  5
9F1D
330
1F
100
AcDbEntity
  8
1
100
AcDbCircle
 10
16392.28824906697
 20
2308.184549795869
 30
0.0
 40
9.5
  0
LINE
  5
9F1E
330
1F
100
AcDbEntity
  8
1
  6
CENTER
 48
0.5
100
AcDbLine
 10
16387.5047061624
 20
2319.733043952261
 30
0.0
 11
16397.07179197153
 21
2296.636055639478
 31
0.0
  0
CIRCLE
  5
9F1F
330
1F
100
AcDbEntity
  8
1
100
AcDbCircle
 10
16424.76001507574
 20
2340.65631580464
 30
0.0
 40
9.5
  0
LINE
  5
9F20
330
1F
100
AcDbEntity
  8
1
  6
CENTER
 48
0.5
100
AcDbLine
 10
16413.21152091935
 20
2345.439858709202
 30
0.0
 11
16436.30850923213
 21
2335.872772900075
 31
0.0
  0
CIRCLE
  5
9F21
330
1F
100
AcDbEntity
  8
1
100
AcDbCircle
 10
16424.76001507574
 20
2386.578327688452
 30
0.0
 40
9.5
  0
LINE
  5
9F22
330
1F
100
AcDbEntity
  8
1
  6
CENTER
 48
0.5
100
AcDbLine
 10
16413.21152091935
 20
2381.794784783886
 30
0.0
 11
16436.30850923213
 21
2391.361870593017
 31
0.0
  0
CIRCLE
  5
9F23
330
1F
100
AcDbEntity
  8
1
100
AcDbCircle
 10
16392.28824906697
 20
2419.050093697223
 30
0.0
 40
9.5
  0
LINE
  5
9F24
330
1F
100
AcDbEntity
  8
1
  6
CENTER
 48
0.5
100
AcDbLine
 10
16387.50470616241
 20
2407.501599540832
 30
0.0
 11
16397.07179197153
 21
2430.598587853614
 31
0.0
  0
CIRCLE
  5
9F25
330
1F
100
AcDbEntity
  8
1
100
AcDbCircle
 10
16346.36623718316
 20
2419.050093697228
 30
0.0
 40
9.5
  0
LINE
  5
9F26
330
1F
100
AcDbEntity
  8
1
  6
CENTER
 48
0.5
100
AcDbLine
 10
16351.14978008773
 20
2407.501599540834
 30
0.0
 11
16341.58269427859
 21
2430.598587853618
 31
0.0
  0
CIRCLE
  5
9F89
330
1F
100
AcDbEntity
  8
1
100
AcDbCircle
 10
17029.8323698038
 20
2390.405162012108
 30
0.0
 40
9.5
  0
CIRCLE
  5
9F8A
330
1F
100
AcDbEntity
  8
1
100
AcDbCircle
 10
17029.8323698038
 20
2336.829481480998
 30
0.0
 40
9.5
  0
LINE
  5
9F8B
330
1F
100
AcDbEntity
  8
1
  6
CENTER
 48
0.5
100
AcDbLine
 10
17041.38086396019
 20
2341.613024385564
 30
0.0
 11
17018.28387564741
 21
2332.045938576437
 31
0.0
  0
CIRCLE
  5
9F8C
330
1F
100
AcDbEntity
  8
1
100
AcDbCircle
 10
17067.71609681403
 20
2298.945754470762
 30
0.0
 40
9.5
  0
LINE
  5
9F8D
330
1F
100
AcDbEntity
  8
1
  6
CENTER
 48
0.5
100
AcDbLine
 10
17072.49963971859
 20
2310.494248627154
 30
0.0
 11
17062.93255390946
 21
2287.397260314374
 31
0.0
  0
CIRCLE
  5
9F8E
330
1F
100
AcDbEntity
  8
1
100
AcDbCircle
 10
17121.29177734514
 20
2298.945754470757
 30
0.0
 40
9.5
  0
LINE
  5
9F8F
330
1F
100
AcDbEntity
  8
1
  6
CENTER
 48
0.5
100
AcDbLine
 10
17116.50823444057
 20
2310.494248627151
 30
0.0
 11
17126.0753202497
 21
2287.397260314369
 31
0.0
  0
CIRCLE
  5
9F90
330
1F
100
AcDbEntity
  8
1
100
AcDbCircle
 10
17159.17550435537
 20
2336.829481480986
 30
0.0
 40
9.5
  0
LINE
  5
9F91
330
1F
100
AcDbEntity
  8
1
  6
CENTER
 48
0.5
100
AcDbLine
 10
17147.62701019898
 20
2341.613024385548
 30
0.0
 11
17170.72399851176
 21
2332.045938576421
 31
0.0
  0
CIRCLE
  5
9F92
330
1F
100
AcDbEntity
  8
1
100
AcDbCircle
 10
17159.17550435538
 20
2390.405162012097
 30
0.0
 40
9.5
  0
LINE
  5
9F93
330
1F
100
AcDbEntity
  8
1
  6
CENTER
 48
0.5
100
AcDbLine
 10
17147.62701019898
 20
2385.621619107535
 30
0.0
 11
17170.72399851176
 21
2395.188704916661
 31
0.0
  0
CIRCLE
  5
9F94
330
1F
100
AcDbEntity
  8
1
100
AcDbCircle
 10
17121.29177734515
 20
2428.288889022333
 30
0.0
 40
9.5
  0
LINE
  5
9F95
330
1F
100
AcDbEntity
  8
1
  6
CENTER
 48
0.5
100
AcDbLine
 10
17116.50823444059
 20
2416.740394865942
 30
0.0
 11
17126.07532024971
 21
2439.837383178721
 31
0.0
  0
CIRCLE
  5
9F96
330
1F
100
AcDbEntity
  8
1
100
AcDbCircle
 10
17067.71609681404
 20
2428.288889022339
 30
0.0
 40
9.5
  0
LINE
  5
9F97
330
1F
100
AcDbEntity
  8
1
  6
CENTER
 48
0.5
100
AcDbLine
 10
17072.4996397186
 20
2416.740394865947
 30
0.0
 11
17062.93255390948
 21
2439.837383178727
 31
0.0
  0
LINE
  5
A01F
330
1F
100
AcDbEntity
  8
1
100
AcDbLine
 10
18101.07202643633
 20
2463.617321746548
 30
0.0
 11
18082.07202643633
 21
2463.617321746548
 31
0.0
  0
LINE
  5
A020
330
1F
100
AcDbEntity
  8
1
100
AcDbLine
 10
18101.07202643633
 20
2263.617321746547
 30
0.0
 11
18082.07202643633
 21
2263.617321746547
 31
0.0
  0
CIRCLE
  5
A021
330
1F
100
AcDbEntity
  8
1
100
AcDbCircle
 10
17869.35830237807
 20
2363.617321746548
 30
0.0
 40
100.0
  0
CIRCLE
  5
A065
330
1F
100
AcDbEntity
  8
1
100
AcDbCircle
 10
17869.35830237807
 20
2363.617321746548
 30
0.0
 40
45.0
  0
LINE
  5
A073
330
1F
100
AcDbEntity
  8
1
  6
HIDDEN
 48
0.5
100
AcDbLine
 10
18080.07202643634
 20
2408.617321746548
 30
0.0
 11
18114.07202643634
 21
2408.617321746548
 31
0.0
  0
LINE
  5
A086
330
1F
100
AcDbEntity
  8
1
  6
HIDDEN
 48
0.5
100
AcDbLine
 10
18080.07202643634
 20
2318.617321746548
 30
0.0
 11
18114.07202643634
 21
2318.617321746548
 31
0.0
  0
LINE
  5
A0AF
330
1F
100
AcDbEntity
  8
1
  6
HIDDEN
 48
0.5
100
AcDbLine
 10
18102.07202643633
 20
2432.117321746547
 30
0.0
 11
18082.07202643633
 21
2432.117321746547
 31
0.0
  0
CIRCLE
  5
A0E6
330
1F
100
AcDbEntity
  8
1
100
AcDbCircle
 10
17838.74362778886
 20
2437.527684347449
 30
0.0
 40
11.5
  0
LINE
  5
A0E7
330
1F
100
AcDbEntity
  8
1
  6
CENTER
 48
0.5
100
AcDbLine
 10
17813.15563081697
 20
2386.897230548763
 30
0.0
 11
17777.74024873737
 21
2401.566762122755
 31
0.0
  0
CIRCLE
  5
A0E8
330
1F
100
AcDbEntity
  8
1
100
AcDbCircle
 10
17795.44793977716
 20
2394.231996335753
 30
0.0
 40
11.5
  0
LINE
  5
A0E9
330
1F
100
AcDbEntity
  8
1
  6
CENTER
 48
0.5
100
AcDbLine
 10
17813.15563081697
 20
2340.337412944344
 30
0.0
 11
17777.74024873737
 21
2325.667881370347
 31
0.0
  0
CIRCLE
  5
A0EA
330
1F
100
AcDbEntity
  8
1
100
AcDbCircle
 10
17795.44793977717
 20
2333.002647157337
 30
0.0
 40
11.5
  0
LINE
  5
A0EB
330
1F
100
AcDbEntity
  8
1
  6
CENTER
 48
0.5
100
AcDbLine
 10
17846.07839357586
 20
2307.414650185449
 30
0.0
 11
17831.40886200186
 21
2271.999268105849
 31
0.0
  0
CIRCLE
  5
A0EC
330
1F
100
AcDbEntity
  8
1
100
AcDbCircle
 10
17838.74362778886
 20
2289.706959145642
 30
0.0
 40
11.5
  0
LINE
  5
A0ED
330
1F
100
AcDbEntity
  8
1
  6
CENTER
 48
0.5
100
AcDbLine
 10
17892.63821118026
 20
2307.414650185446
 30
0.0
 11
17907.30774275426
 21
2271.999268105847
 31
0.0
  0
CIRCLE
  5
A0EE
330
1F
100
AcDbEntity
  8
1
100
AcDbCircle
 10
17899.97297696728
 20
2289.706959145645
 30
0.0
 40
11.5
  0
LINE
  5
A0EF
330
1F
100
AcDbEntity
  8
1
  6
CENTER
 48
0.5
100
AcDbLine
 10
17925.56097393917
 20
2340.337412944335
 30
0.0
 11
17960.97635601876
 21
2325.66788137034
 31
0.0
  0
CIRCLE
  5
A0F0
330
1F
100
AcDbEntity
  8
1
100
AcDbCircle
 10
17943.26866497898
 20
2333.002647157345
 30
0.0
 40
11.5
  0
LINE
  5
A0F1
330
1F
100
AcDbEntity
  8
1
  6
CENTER
 48
0.5
100
AcDbLine
 10
17925.56097393917
 20
2386.897230548751
 30
0.0
 11
17960.97635601877
 21
2401.566762122748
 31
0.0
  0
CIRCLE
  5
A0F2
330
1F
100
AcDbEntity
  8
1
100
AcDbCircle
 10
17943.26866497897
 20
2394.231996335761
 30
0.0
 40
11.5
  0
LINE
  5
A0F3
330
1F
100
AcDbEntity
  8
1
  6
CENTER
 48
0.5
100
AcDbLine
 10
17892.63821118028
 20
2419.819993307647
 30
0.0
 11
17907.30774275426
 21
2455.235375387245
 31
0.0
  0
CIRCLE
  5
A0F4
330
1F
100
AcDbEntity
  8
1
100
AcDbCircle
 10
17899.97297696728
 20
2437.527684347456
 30
0.0
 40
11.5
  0
CIRCLE
  5
A1C1
330
1F
100
AcDbEntity
  8
1
100
AcDbCircle
 10
12524.99827517284
 20
1938.321890976123
 30
0.0
 40
105.0
  0
LINE
  5
A1CF
330
1F
100
AcDbEntity
  8
1
100
AcDbLine
 10
12754.11205645783
 20
2043.321890976124
 30
0.0
 11
12733.11205645782
 21
2043.321890976125
 31
0.0
  0
LINE
  5
A1D0
330
1F
100
AcDbEntity
  8
1
100
AcDbLine
 10
12754.11205645783
 20
1833.321890976122
 30
0.0
 11
12733.11205645783
 21
1833.321890976122
 31
0.0
  0
LINE
  5
A20B
330
1F
100
AcDbEntity
  8
1
  6
HIDDEN
100
AcDbLine
 10
12755.11205645783
 20
2034.821890976123
 30
0.0
 11
12733.11205645782
 21
2034.821890976125
 31
0.0
  0
LINE
  5
A20C
330
1F
100
AcDbEntity
  8
1
  6
HIDDEN
100
AcDbLine
 10
12755.11205645783
 20
2011.821890976124
 30
0.0
 11
12733.11205645782
 21
2011.821890976126
 31
0.0
  0
LINE
  5
A20D
330
1F
100
AcDbEntity
  8
1
  6
HIDDEN
100
AcDbLine
 10
12755.11205645783
 20
1864.821890976122
 30
0.0
 11
12733.11205645783
 21
1864.821890976122
 31
0.0
  0
LINE
  5
A20E
330
1F
100
AcDbEntity
  8
1
  6
HIDDEN
100
AcDbLine
 10
12755.11205645783
 20
1841.821890976122
 30
0.0
 11
12733.11205645783
 21
1841.821890976122
 31
0.0
  0
CIRCLE
  5
A255
330
1F
100
AcDbEntity
  8
1
100
AcDbCircle
 10
12492.4701834218
 20
2016.851651239582
 30
0.0
 40
11.5
  0
CIRCLE
  5
A256
330
1F
100
AcDbEntity
  8
1
  6
CENTER
100
AcDbCircle
 10
12524.99827517284
 20
1938.321890976123
 30
0.0
 40
85.0
  0
LINE
  5
A257
330
1F
100
AcDbEntity
  8
1
  6
CENTER
 48
0.5
100
AcDbLine
 10
12464.17620594917
 20
1963.515216940155
 30
0.0
 11
12428.76082386957
 21
1978.184748514148
 31
0.0
  0
CIRCLE
  5
A258
330
1F
100
AcDbEntity
  8
1
100
AcDbCircle
 10
12446.46851490938
 20
1970.849982727157
 30
0.0
 40
11.5
  0
LINE
  5
A259
330
1F
100
AcDbEntity
  8
1
  6
CENTER
 48
0.5
100
AcDbLine
 10
12464.17620594917
 20
1913.128565012083
 30
0.0
 11
12428.76082386958
 21
1898.459033438085
 31
0.0
  0
CIRCLE
  5
A25A
330
1F
100
AcDbEntity
  8
1
100
AcDbCircle
 10
12446.46851490938
 20
1905.793799225092
 30
0.0
 40
11.5
  0
LINE
  5
A25B
330
1F
100
AcDbEntity
  8
1
  6
CENTER
 48
0.5
100
AcDbLine
 10
12499.8049492088
 20
1877.49982175246
 30
0.0
 11
12485.13541763481
 21
1842.084439672859
 31
0.0
  0
CIRCLE
  5
A25C
330
1F
100
AcDbEntity
  8
1
100
AcDbCircle
 10
12492.4701834218
 20
1859.792130712667
 30
0.0
 40
11.5
  0
LINE
  5
A25D
330
1F
100
AcDbEntity
  8
1
  6
CENTER
 48
0.5
100
AcDbLine
 10
12550.19160113688
 20
1877.499821752464
 30
0.0
 11
12564.86113271088
 21
1842.084439672865
 31
0.0
  0
CIRCLE
  5
A25E
330
1F
100
AcDbEntity
  8
1
100
AcDbCircle
 10
12557.52636692387
 20
1859.792130712665
 30
0.0
 40
11.5
  0
LINE
  5
A25F
330
1F
100
AcDbEntity
  8
1
  6
CENTER
 48
0.5
100
AcDbLine
 10
12585.8203443965
 20
1913.128565012094
 30
0.0
 11
12621.2357264761
 21
1898.459033438101
 31
0.0
  0
CIRCLE
  5
A260
330
1F
100
AcDbEntity
  8
1
100
AcDbCircle
 10
12603.52803543629
 20
1905.793799225093
 30
0.0
 40
11.5
  0
LINE
  5
A261
330
1F
100
AcDbEntity
  8
1
  6
CENTER
 48
0.5
100
AcDbLine
 10
12585.82034439649
 20
1963.515216940164
 30
0.0
 11
12621.23572647609
 21
1978.184748514162
 31
0.0
  0
CIRCLE
  5
A262
330
1F
100
AcDbEntity
  8
1
100
AcDbCircle
 10
12603.52803543629
 20
1970.849982727154
 30
0.0
 40
11.5
  0
LINE
  5
A263
330
1F
100
AcDbEntity
  8
1
  6
CENTER
 48
0.5
100
AcDbLine
 10
12550.19160113687
 20
1999.143960199788
 30
0.0
 11
12564.86113271086
 21
2034.55934227939
 31
0.0
  0
CIRCLE
  5
A264
330
1F
100
AcDbEntity
  8
1
100
AcDbCircle
 10
12557.52636692387
 20
2016.851651239583
 30
0.0
 40
11.5
  0
LINE
  5
A2BF
330
1F
100
AcDbEntity
  8
1
100
AcDbLine
 10
13479.71670296303
 20
2050.821890976123
 30
0.0
 11
13458.71670296304
 21
2050.821890976123
 31
0.0
  0
LINE
  5
A2C0
330
1F
100
AcDbEntity
  8
1
100
AcDbLine
 10
13479.71670296304
 20
1825.821890976123
 30
0.0
 11
13458.71670296303
 21
1825.821890976123
 31
0.0
  0
LINE
  5
A31C
330
1F
100
AcDbEntity
  8
1
100
AcDbLine
 10
13492.71670296303
 20
2007.321890976124
 30
0.0
 11
13492.71670296304
 21
1869.321890976124
 31
0.0
  0
CIRCLE
  5
A324
330
1F
100
AcDbEntity
  8
1
  6
CENTER
100
AcDbCircle
 10
13250.60292167805
 20
1938.321890976123
 30
0.0
 40
92.50000000000015
  0
CIRCLE
  5
A325
330
1F
100
AcDbEntity
  8
1
100
AcDbCircle
 10
13215.20470418427
 20
2023.780747733415
 30
0.0
 40
11.5
  0
LINE
  5
A326
330
1F
100
AcDbEntity
  8
1
  6
CENTER
 48
0.5
100
AcDbLine
 10
13182.85175596055
 20
1966.38534268289
 30
0.0
 11
13147.43637388095
 21
1981.054874256884
 31
0.0
  0
CIRCLE
  5
A327
330
1F
100
AcDbEntity
  8
1
100
AcDbCircle
 10
13165.14406492075
 20
1973.720108469887
 30
0.0
 40
11.5
  0
LINE
  5
A328
330
1F
100
AcDbEntity
  8
1
  6
CENTER
 48
0.5
100
AcDbLine
 10
13182.85175596056
 20
1910.258439269343
 30
0.0
 11
13147.43637388096
 21
1895.588907695346
 31
0.0
  0
CIRCLE
  5
A329
330
1F
100
AcDbEntity
  8
1
100
AcDbCircle
 10
13165.14406492076
 20
1902.923673482344
 30
0.0
 40
11.5
  0
LINE
  5
A32A
330
1F
100
AcDbEntity
  8
1
  6
CENTER
 48
0.5
100
AcDbLine
 10
13222.53946997129
 20
1870.570725258626
 30
0.0
 11
13207.86993839729
 21
1835.155343179027
 31
0.0
  0
CIRCLE
  5
A32B
330
1F
100
AcDbEntity
  8
1
100
AcDbCircle
 10
13215.20470418429
 20
1852.863034218826
 30
0.0
 40
11.5
  0
LINE
  5
A32C
330
1F
100
AcDbEntity
  8
1
  6
CENTER
 48
0.5
100
AcDbLine
 10
13278.66637338483
 20
1870.570725258632
 30
0.0
 11
13293.33590495882
 21
1835.155343179033
 31
0.0
  0
CIRCLE
  5
A32D
330
1F
100
AcDbEntity
  8
1
100
AcDbCircle
 10
13286.00113917183
 20
1852.863034218833
 30
0.0
 40
11.5
  0
LINE
  5
A32E
330
1F
100
AcDbEntity
  8
1
  6
CENTER
 48
0.5
100
AcDbLine
 10
13318.35408739555
 20
1910.258439269359
 30
0.0
 11
13353.76946947515
 21
1895.588907695364
 31
0.0
  0
CIRCLE
  5
A32F
330
1F
100
AcDbEntity
  8
1
100
AcDbCircle
 10
13336.06177843535
 20
1902.923673482362
 30
0.0
 40
11.5
  0
LINE
  5
A330
330
1F
100
AcDbEntity
  8
1
  6
CENTER
 48
0.5
100
AcDbLine
 10
13318.35408739554
 20
1966.385342682904
 30
0.0
 11
13353.76946947514
 21
1981.054874256901
 31
0.0
  0
CIRCLE
  5
A331
330
1F
100
AcDbEntity
  8
1
100
AcDbCircle
 10
13336.06177843534
 20
1973.720108469903
 30
0.0
 40
11.5
  0
LINE
  5
A332
330
1F
100
AcDbEntity
  8
1
  6
CENTER
 48
0.5
100
AcDbLine
 10
13278.66637338482
 20
2006.073056693624
 30
0.0
 11
13293.33590495881
 21
2041.488438773224
 31
0.0
  0
CIRCLE
  5
A333
330
1F
100
AcDbEntity
  8
1
100
AcDbCircle
 10
13286.00113917181
 20
2023.780747733425
 30
0.0
 40
11.5
  0
CIRCLE
  5
A379
330
1F
100
AcDbEntity
  8
1
100
AcDbCircle
 10
13957.36003241772
 20
1938.321890976123
 30
0.0
 40
135.0
  0
LINE
  5
A37A
330
1F
100
AcDbEntity
  8
1
100
AcDbLine
 10
14204.09236465124
 20
2073.321890976123
 30
0.0
 11
14181.09236465123
 21
2073.321890976123
 31
0.0
  0
LINE
  5
A37B
330
1F
100
AcDbEntity
  8
1
100
AcDbLine
 10
14204.09236465123
 20
1803.321890976123
 30
0.0
 11
14181.09236465123
 21
1803.321890976123
 31
0.0
  0
CIRCLE
  5
A3E9
330
1F
100
AcDbEntity
  8
1
100
AcDbCircle
 10
13914.30814627663
 20
2042.258338383639
 30
0.0
 40
12.5
  0
CIRCLE
  5
A3F7
330
1F
100
AcDbEntity
  8
1
  6
CENTER
100
AcDbCircle
 10
13957.36003241772
 20
1938.321890976123
 30
0.0
 40
112.5000000000002
  0
CIRCLE
  5
A407
330
1F
100
AcDbEntity
  8
1
100
AcDbCircle
 10
13853.4235850102
 20
1981.373777117184
 30
0.0
 40
12.5
  0
LINE
  5
A408
330
1F
100
AcDbEntity
  8
1
  6
CENTER
 48
0.5
100
AcDbLine
 10
13871.05023398573
 20
1974.072580052312
 30
0.0
 11
13835.79693603465
 21
1988.674974182046
 31
0.0
  0
CIRCLE
  5
A409
330
1F
100
AcDbEntity
  8
1
100
AcDbCircle
 10
13853.4235850102
 20
1895.270004835037
 30
0.0
 40
12.5
  0
LINE
  5
A40A
330
1F
100
AcDbEntity
  8
1
  6
CENTER
 48
0.5
100
AcDbLine
 10
13871.05023398575
 20
1902.571201899884
 30
0.0
 11
13835.79693603466
 21
1887.968807770177
 31
0.0
  0
CIRCLE
  5
A40B
330
1F
100
AcDbEntity
  8
1
100
AcDbCircle
 10
13914.30814627666
 20
1834.385443568599
 30
0.0
 40
12.5
  0
LINE
  5
A40C
330
1F
100
AcDbEntity
  8
1
  6
CENTER
 48
0.5
100
AcDbLine
 10
13921.60934334154
 20
1852.012092544135
 30
0.0
 11
13907.0069492118
 21
1816.758794593053
 31
0.0
  0
CIRCLE
  5
A40D
330
1F
100
AcDbEntity
  8
1
100
AcDbCircle
 10
14000.41191855881
 20
1834.385443568608
 30
0.0
 40
12.5
  0
LINE
  5
A40E
330
1F
100
AcDbEntity
  8
1
  6
CENTER
 48
0.5
100
AcDbLine
 10
13993.11072149396
 20
1852.012092544157
 30
0.0
 11
14007.71311562367
 21
1816.758794593064
 31
0.0
  0
CIRCLE
  5
A40F
330
1F
100
AcDbEntity
  8
1
100
AcDbCircle
 10
14061.29647982525
 20
1895.270004835067
 30
0.0
 40
12.5
  0
LINE
  5
A410
330
1F
100
AcDbEntity
  8
1
  6
CENTER
 48
0.5
100
AcDbLine
 10
14043.66983084971
 20
1902.571201899938
 30
0.0
 11
14078.92312880079
 21
1887.968807770205
 31
0.0
  0
CIRCLE
  5
A411
330
1F
100
AcDbEntity
  8
1
100
AcDbCircle
 10
14061.29647982524
 20
1981.373777117208
 30
0.0
 40
12.5
  0
LINE
  5
A412
330
1F
100
AcDbEntity
  8
1
  6
CENTER
 48
0.5
100
AcDbLine
 10
14043.66983084969
 20
1974.072580052363
 30
0.0
 11
14078.92312880078
 21
1988.674974182069
 31
0.0
  0
CIRCLE
  5
A413
330
1F
100
AcDbEntity
  8
1
100
AcDbCircle
 10
14000.41191855878
 20
2042.258338383653
 30
0.0
 40
12.5
  0
LINE
  5
A414
330
1F
100
AcDbEntity
  8
1
  6
CENTER
 48
0.5
100
AcDbLine
 10
13993.11072149391
 20
2024.631689408113
 30
0.0
 11
14007.71311562364
 21
2059.884987359195
 31
0.0
  0
CIRCLE
  5
A48B
330
1F
100
AcDbEntity
  8
1
100
AcDbCircle
 10
14690.27530117054
 20
1938.321890976123
 30
0.0
 40
152.5
  0
LINE
  5
A4C6
330
1F
100
AcDbEntity
  8
1
  6
HIDDEN
100
AcDbLine
 10
14979.42734419713
 20
2080.821890976124
 30
0.0
 11
14953.42734419713
 21
2080.821890976124
 31
0.0
  0
LINE
  5
A4C7
330
1F
100
AcDbEntity
  8
1
  6
HIDDEN
100
AcDbLine
 10
14979.42734419713
 20
2055.821890976124
 30
0.0
 11
14953.42734419713
 21
2055.821890976124
 31
0.0
  0
LINE
  5
A4C8
330
1F
100
AcDbEntity
  8
1
  6
HIDDEN
100
AcDbLine
 10
14979.42734419713
 20
1820.821890976123
 30
0.0
 11
14953.42734419713
 21
1820.821890976123
 31
0.0
  0
LINE
  5
A4C9
330
1F
100
AcDbEntity
  8
1
  6
HIDDEN
100
AcDbLine
 10
14979.42734419713
 20
1795.821890976123
 30
0.0
 11
14953.42734419713
 21
1795.821890976123
 31
0.0
  0
LINE
  5
A4E0
330
1F
100
AcDbEntity
  8
1
  6
CENTER
 48
0.5
100
AcDbLine
 10
14921.67971566864
 20
1938.321890976123
 30
0.0
 11
15019.09843484408
 21
1938.321890976123
 31
0.0
  0
CIRCLE
  5
A518
330
1F
100
AcDbEntity
  8
1
100
AcDbCircle
 10
14656.62882530724
 20
2063.89224839371
 30
0.0
 40
12.5
  0
CIRCLE
  5
A519
330
1F
100
AcDbEntity
  8
1
  6
CENTER
100
AcDbCircle
 10
14690.27530117054
 20
1938.321890976123
 30
0.0
 40
129.9999999999997
  0
CIRCLE
  5
A52B
330
1F
100
AcDbEntity
  8
1
100
AcDbCircle
 10
14598.35141961631
 20
2030.245772530397
 30
0.0
 40
12.5
  0
LINE
  5
A52C
330
1F
100
AcDbEntity
  8
1
  6
CENTER
 48
0.5
100
AcDbLine
 10
14611.84227267842
 20
2016.75491946828
 30
0.0
 11
14584.8605665542
 21
2043.73662559251
 31
0.0
  0
CIRCLE
  5
A52D
330
1F
100
AcDbEntity
  8
1
100
AcDbCircle
 10
14564.70494375297
 20
1971.968366839483
 30
0.0
 40
12.5
  0
LINE
  5
A52E
330
1F
100
AcDbEntity
  8
1
  6
CENTER
 48
0.5
100
AcDbLine
 10
14583.13379175454
 20
1967.03037190002
 30
0.0
 11
14546.2760957514
 21
1976.90636177894
 31
0.0
  0
CIRCLE
  5
A52F
330
1F
100
AcDbEntity
  8
1
100
AcDbCircle
 10
14564.70494375295
 20
1904.675415112827
 30
0.0
 40
12.5
  0
LINE
  5
A530
330
1F
100
AcDbEntity
  8
1
  6
CENTER
 48
0.5
100
AcDbLine
 10
14583.13379175452
 20
1909.613410052276
 30
0.0
 11
14546.27609575138
 21
1899.737420173373
 31
0.0
  0
CIRCLE
  5
A531
330
1F
100
AcDbEntity
  8
1
100
AcDbCircle
 10
14598.35141961627
 20
1846.398009421901
 30
0.0
 40
12.5
  0
LINE
  5
A532
330
1F
100
AcDbEntity
  8
1
  6
CENTER
 48
0.5
100
AcDbLine
 10
14611.84227267838
 20
1859.888862484004
 30
0.0
 11
14584.86056655415
 21
1832.907156359786
 31
0.0
  0
CIRCLE
  5
A533
330
1F
100
AcDbEntity
  8
1
100
AcDbCircle
 10
14656.62882530718
 20
1812.751533558553
 30
0.0
 40
12.5
  0
LINE
  5
A534
330
1F
100
AcDbEntity
  8
1
  6
CENTER
 48
0.5
100
AcDbLine
 10
14661.56682024664
 20
1831.18038156012
 30
0.0
 11
14651.69083036772
 21
1794.322685556986
 31
0.0
  0
CIRCLE
  5
A535
330
1F
100
AcDbEntity
  8
1
100
AcDbCircle
 10
14723.92177703384
 20
1812.751533558537
 30
0.0
 40
12.5
  0
LINE
  5
A536
330
1F
100
AcDbEntity
  8
1
  6
CENTER
 48
0.5
100
AcDbLine
 10
14718.98378209439
 20
1831.180381560107
 30
0.0
 11
14728.85977197329
 21
1794.32268555697
 31
0.0
  0
CIRCLE
  5
A537
330
1F
100
AcDbEntity
  8
1
100
AcDbCircle
 10
14782.19918272477
 20
1846.398009421851
 30
0.0
 40
12.5
  0
LINE
  5
A538
330
1F
100
AcDbEntity
  8
1
  6
CENTER
 48
0.5
100
AcDbLine
 10
14768.70832966266
 20
1859.888862483967
 30
0.0
 11
14795.69003578688
 21
1832.907156359737
 31
0.0
  0
CIRCLE
  5
A539
330
1F
100
AcDbEntity
  8
1
100
AcDbCircle
 10
14815.8456585881
 20
1904.675415112767
 30
0.0
 40
12.5
  0
LINE
  5
A53A
330
1F
100
AcDbEntity
  8
1
  6
CENTER
 48
0.5
100
AcDbLine
 10
14797.41681058654
 20
1909.61341005223
 30
0.0
 11
14834.27450658968
 21
1899.737420173309
 31
0.0
  0
CIRCLE
  5
A53B
330
1F
100
AcDbEntity
  8
1
100
AcDbCircle
 10
14815.84565858812
 20
1971.968366839423
 30
0.0
 40
12.5
  0
LINE
  5
A53C
330
1F
100
AcDbEntity
  8
1
  6
CENTER
 48
0.5
100
AcDbLine
 10
14797.41681058656
 20
1967.030371899973
 30
0.0
 11
14834.27450658969
 21
1976.906361778876
 31
0.0
  0
CIRCLE
  5
A53D
330
1F
100
AcDbEntity
  8
1
100
AcDbCircle
 10
14782.19918272481
 20
2030.245772530353
 30
0.0
 40
12.5
  0
LINE
  5
A53E
330
1F
100
AcDbEntity
  8
1
  6
CENTER
 48
0.5
100
AcDbLine
 10
14768.7083296627
 20
2016.754919468245
 30
0.0
 11
14795.69003578693
 21
2043.736625592461
 31
0.0
  0
CIRCLE
  5
A53F
330
1F
100
AcDbEntity
  8
1
100
AcDbCircle
 10
14723.9217770339
 20
2063.892248393694
 30
0.0
 40
12.5
  0
LINE
  5
A540
330
1F
100
AcDbEntity
  8
1
  6
CENTER
 48
0.5
100
AcDbLine
 10
14718.98378209443
 20
2045.463400392128
 30
0.0
 11
14728.85977197335
 21
2082.32109639526
 31
0.0
  0
LINE
  5
A5D4
330
1F
100
AcDbEntity
  8
1
100
AcDbLine
 10
16610.40137970335
 20
2113.321890976123
 30
0.0
 11
16583.40137970334
 21
2113.321890976123
 31
0.0
  0
LINE
  5
A5D5
330
1F
100
AcDbEntity
  8
1
100
AcDbLine
 10
16610.40137970333
 20
1763.321890976123
 30
0.0
 11
16583.40137970334
 21
1763.321890976123
 31
0.0
  0
CIRCLE
  5
A644
330
1F
100
AcDbEntity
  8
1
  6
CENTER
100
AcDbCircle
 10
16270.41154638935
 20
1938.321890976123
 30
0.0
 40
152.5000000000001
  0
CIRCLE
  5
A645
330
1F
100
AcDbEntity
  8
1
100
AcDbCircle
 10
16270.41154638935
 20
1938.321890976123
 30
0.0
 40
175.0
  0
CIRCLE
  5
A646
330
1F
100
AcDbEntity
  8
1
100
AcDbCircle
 10
16162.5777622584
 20
2046.155675107071
 30
0.0
 40
12.5
  0
CIRCLE
  5
A647
330
1F
100
AcDbEntity
  8
1
100
AcDbCircle
 10
16123.10785788027
 20
1977.791795354255
 30
0.0
 40
12.5
  0
LINE
  5
A648
330
1F
100
AcDbEntity
  8
1
  6
CENTER
 48
0.5
100
AcDbLine
 10
16104.6790098787
 20
1982.729790293711
 30
0.0
 11
16141.53670588183
 21
1972.853800414801
 31
0.0
  0
CIRCLE
  5
A649
330
1F
100
AcDbEntity
  8
1
100
AcDbCircle
 10
16123.10785788027
 20
1898.851986597987
 30
0.0
 40
12.5
  0
LINE
  5
A64A
330
1F
100
AcDbEntity
  8
1
  6
CENTER
 48
0.5
100
AcDbLine
 10
16104.6790098787
 20
1893.91399165853
 30
0.0
 11
16141.53670588184
 21
1903.789981537444
 31
0.0
  0
CIRCLE
  5
A64B
330
1F
100
AcDbEntity
  8
1
100
AcDbCircle
 10
16162.5777622584
 20
1830.488106845173
 30
0.0
 40
12.5
  0
LINE
  5
A64C
330
1F
100
AcDbEntity
  8
1
  6
CENTER
 48
0.5
100
AcDbLine
 10
16149.08690919629
 20
1816.99725378306
 30
0.0
 11
16176.06861532051
 21
1843.978959907284
 31
0.0
  0
CIRCLE
  5
A64D
330
1F
100
AcDbEntity
  8
1
100
AcDbCircle
 10
16230.94164201122
 20
1791.018202467041
 30
0.0
 40
12.5
  0
LINE
  5
A64E
330
1F
100
AcDbEntity
  8
1
  6
CENTER
 48
0.5
100
AcDbLine
 10
16226.00364707177
 20
1772.589354465472
 30
0.0
 11
16235.87963695068
 21
1809.447050468608
 31
0.0
  0
CIRCLE
  5
A64F
330
1F
100
AcDbEntity
  8
1
100
AcDbCircle
 10
16309.88145076748
 20
1791.018202467041
 30
0.0
 40
12.5
  0
LINE
  5
A650
330
1F
100
AcDbEntity
  8
1
  6
CENTER
 48
0.5
100
AcDbLine
 10
16314.81944570694
 20
1772.589354465473
 30
0.0
 11
16304.94345582803
 21
1809.447050468608
 31
0.0
  0
CIRCLE
  5
A651
330
1F
100
AcDbEntity
  8
1
100
AcDbCircle
 10
16378.2453305203
 20
1830.488106845176
 30
0.0
 40
12.5
  0
LINE
  5
A652
330
1F
100
AcDbEntity
  8
1
  6
CENTER
 48
0.5
100
AcDbLine
 10
16391.73618358242
 20
1816.997253783064
 30
0.0
 11
16364.75447745819
 21
1843.978959907287
 31
0.0
  0
CIRCLE
  5
A653
330
1F
100
AcDbEntity
  8
1
100
AcDbCircle
 10
16417.71523489844
 20
1898.851986597992
 30
0.0
 40
12.5
  0
LINE
  5
A654
330
1F
100
AcDbEntity
  8
1
  6
CENTER
 48
0.5
100
AcDbLine
 10
16436.1440829
 20
1893.913991658537
 30
0.0
 11
16399.28638689687
 21
1903.789981537448
 31
0.0
  0
CIRCLE
  5
A655
330
1F
100
AcDbEntity
  8
1
100
AcDbCircle
 10
16417.71523489843
 20
1977.791795354262
 30
0.0
 40
12.5
  0
LINE
  5
A656
330
1F
100
AcDbEntity
  8
1
  6
CENTER
 48
0.5
100
AcDbLine
 10
16436.1440829
 20
1982.729790293719
 30
0.0
 11
16399.28638689687
 21
1972.853800414807
 31
0.0
  0
CIRCLE
  5
A657
330
1F
100
AcDbEntity
  8
1
100
AcDbCircle
 10
16378.2453305203
 20
2046.155675107077
 30
0.0
 40
12.5
  0
LINE
  5
A658
330
1F
100
AcDbEntity
  8
1
  6
CENTER
 48
0.5
100
AcDbLine
 10
16391.73618358241
 20
2059.646528169189
 30
0.0
 11
16364.75447745818
 21
2032.664822044964
 31
0.0
  0
CIRCLE
  5
A659
330
1F
100
AcDbEntity
  8
1
100
AcDbCircle
 10
16309.88145076748
 20
2085.625579485208
 30
0.0
 40
12.5
  0
LINE
  5
A65A
330
1F
100
AcDbEntity
  8
1
  6
CENTER
 48
0.5
100
AcDbLine
 10
16314.81944570694
 20
2104.054427486775
 30
0.0
 11
16304.94345582803
 21
2067.19673148364
 31
0.0
  0
CIRCLE
  5
A65B
330
1F
100
AcDbEntity
  8
1
100
AcDbCircle
 10
16230.94164201121
 20
2085.625579485208
 30
0.0
 40
12.5
  0
LINE
  5
A65C
330
1F
100
AcDbEntity
  8
1
  6
CENTER
 48
0.5
100
AcDbLine
 10
16226.00364707176
 20
2104.054427486774
 30
0.0
 11
16235.87963695067
 21
2067.196731483639
 31
0.0
  0
LINE
  5
A65D
330
1F
100
AcDbEntity
  8
1
100
AcDbLine
 10
15178.33035205006
 20
1604.149556625852
 30
0.0
 11
15978.33035205006
 21
2174.149556625845
 31
0.0
  0
LINE
  5
A65E
330
1F
100
AcDbEntity
  8
1
100
AcDbLine
 10
16778.33035205007
 20
1604.149556625852
 30
0.0
 11
17603.33035205006
 21
2174.149556625843
 31
0.0
  0
LINE
  5
A6AF
330
1F
100
AcDbEntity
  8
1
100
AcDbLine
 10
18289.3188423791
 20
2153.321890976124
 30
0.0
 11
18258.3188423791
 21
2153.321890976123
 31
0.0
  0
LINE
  5
A6B0
330
1F
100
AcDbEntity
  8
1
100
AcDbLine
 10
18289.31884237909
 20
1723.321890976123
 30
0.0
 11
18258.31884237909
 21
1723.321890976124
 31
0.0
  0
CIRCLE
  5
A71D
330
1F
100
AcDbEntity
  8
1
  6
CENTER
100
AcDbCircle
 10
17930.08741109269
 20
1938.321890976123
 30
0.0
 40
190.0000000000002
  0
CIRCLE
  5
A750
330
1F
100
AcDbEntity
  8
1
100
AcDbCircle
 10
17746.56150409777
 20
1889.146272406629
 30
0.0
 40
13.5
  0
LINE
  5
A751
330
1F
100
AcDbEntity
  8
1
  6
CENTER
 48
0.5
100
AcDbLine
 10
17727.8519408103
 20
1884.133060033015
 30
0.0
 11
17765.27106738524
 21
1894.15948478025
 31
0.0
  0
CIRCLE
  5
A752
330
1F
100
AcDbEntity
  8
1
100
AcDbCircle
 10
17795.73712266725
 20
1803.971602550665
 30
0.0
 40
13.5
  0
LINE
  5
A753
330
1F
100
AcDbEntity
  8
1
  6
CENTER
 48
0.5
100
AcDbLine
 10
17782.0407717534
 20
1790.275251636814
 30
0.0
 11
17809.4334735811
 21
1817.667953464523
 31
0.0
  0
CIRCLE
  5
A754
330
1F
100
AcDbEntity
  8
1
100
AcDbCircle
 10
17880.91179252321
 20
1754.795983981196
 30
0.0
 40
13.5
  0
LINE
  5
A755
330
1F
100
AcDbEntity
  8
1
  6
CENTER
 48
0.5
100
AcDbLine
 10
17875.89858014961
 20
1736.086420693729
 30
0.0
 11
17885.92500489684
 21
1773.505547268669
 31
0.0
  0
CIRCLE
  5
A756
330
1F
100
AcDbEntity
  8
1
100
AcDbCircle
 10
17979.26302966218
 20
1754.795983981207
 30
0.0
 40
13.5
  0
LINE
  5
A757
330
1F
100
AcDbEntity
  8
1
  6
CENTER
 48
0.5
100
AcDbLine
 10
17984.2762420358
 20
1736.086420693737
 30
0.0
 11
17974.24981728856
 21
1773.505547268674
 31
0.0
  0
CIRCLE
  5
A758
330
1F
100
AcDbEntity
  8
1
100
AcDbCircle
 10
18064.43769951814
 20
1803.97160255069
 30
0.0
 40
13.5
  0
LINE
  5
A759
330
1F
100
AcDbEntity
  8
1
  6
CENTER
 48
0.5
100
AcDbLine
 10
18078.134050432
 20
1790.275251636838
 30
0.0
 11
18050.74134860428
 21
1817.667953464543
 31
0.0
  0
CIRCLE
  5
A75A
330
1F
100
AcDbEntity
  8
1
100
AcDbCircle
 10
18113.61331808761
 20
1889.14627240666
 30
0.0
 40
13.5
  0
LINE
  5
A75B
330
1F
100
AcDbEntity
  8
1
  6
CENTER
 48
0.5
100
AcDbLine
 10
18132.32288137508
 20
1884.133060033043
 30
0.0
 11
18094.90375480014
 21
1894.159484780274
 31
0.0
  0
CIRCLE
  5
A75C
330
1F
100
AcDbEntity
  8
1
100
AcDbCircle
 10
18113.61331808761
 20
1987.497509545618
 30
0.0
 40
13.5
  0
LINE
  5
A75D
330
1F
100
AcDbEntity
  8
1
  6
CENTER
 48
0.5
100
AcDbLine
 10
18132.32288137507
 20
1992.510721919234
 30
0.0
 11
18094.90375480013
 21
1982.484297171999
 31
0.0
  0
CIRCLE
  5
A75E
330
1F
100
AcDbEntity
  8
1
100
AcDbCircle
 10
18064.43769951812
 20
2072.67217940158
 30
0.0
 40
13.5
  0
LINE
  5
A75F
330
1F
100
AcDbEntity
  8
1
  6
CENTER
 48
0.5
100
AcDbLine
 10
18078.13405043197
 20
2086.368530315431
 30
0.0
 11
18050.74134860427
 21
2058.975828487724
 31
0.0
  0
CIRCLE
  5
A760
330
1F
100
AcDbEntity
  8
1
100
AcDbCircle
 10
17979.26302966215
 20
2121.847797971052
 30
0.0
 40
13.5
  0
LINE
  5
A761
330
1F
100
AcDbEntity
  8
1
  6
CENTER
 48
0.5
100
AcDbLine
 10
17984.27624203577
 20
2140.557361258518
 30
0.0
 11
17974.24981728854
 21
2103.138234683578
 31
0.0
  0
CIRCLE
  5
A762
330
1F
100
AcDbEntity
  8
1
100
AcDbCircle
 10
17880.91179252319
 20
2121.847797971046
 30
0.0
 40
13.5
  0
LINE
  5
A763
330
1F
100
AcDbEntity
  8
1
  6
CENTER
 48
0.5
100
AcDbLine
 10
17875.89858014958
 20
2140.557361258512
 30
0.0
 11
17885.92500489682
 21
2103.138234683575
 31
0.0
  0
CIRCLE
  5
A764
330
1F
100
AcDbEntity
  8
1
100
AcDbCircle
 10
17795.73712266723
 20
2072.672179401557
 30
0.0
 40
13.5
  0
LINE
  5
A765
330
1F
100
AcDbEntity
  8
1
  6
CENTER
 48
0.5
100
AcDbLine
 10
17782.04077175338
 20
2086.368530315409
 30
0.0
 11
17809.43347358109
 21
2058.975828487704
 31
0.0
  0
LINE
  5
A7AD
330
1F
100
AcDbEntity
  8
1
100
AcDbLine
 10
12880.4817970498
 20
1438.619440937446
 30
0.0
 11
12848.48179704979
 21
1438.619440937447
 31
0.0
  0
LINE
  5
A7AE
330
1F
100
AcDbEntity
  8
1
100
AcDbLine
 10
12880.4817970498
 20
958.6194409374465
 30
0.0
 11
12848.48179704981
 21
958.6194409374465
 31
0.0
  0
CIRCLE
  5
A7AF
330
1F
100
AcDbEntity
  8
1
100
AcDbCircle
 10
12508.31530394205
 20
1198.619440937447
 30
0.0
 40
240.0
  0
CIRCLE
  5
A7BD
330
1F
100
AcDbEntity
  8
1
  6
CENTER
100
AcDbCircle
 10
12508.31530394205
 20
1198.619440937447
 30
0.0
 40
214.9999999999998
  0
LINE
  5
A7F9
330
1F
100
AcDbEntity
  8
1
100
AcDbLine
 10
12887.5415120495
 20
1379.10451218752
 30
0.0
 11
12900.51165454965
 21
1375.861976562484
 31
0.0
  0
CIRCLE
  5
A813
330
1F
100
AcDbEntity
  8
1
100
AcDbCircle
 10
12466.37088470858
 20
1409.488276224141
 30
0.0
 40
13.5
  0
CIRCLE
  5
A834
330
1F
100
AcDbEntity
  8
1
100
AcDbCircle
 10
12388.86770384283
 20
1377.385407582493
 30
0.0
 40
13.5
  0
LINE
  5
A835
330
1F
100
AcDbEntity
  8
1
  6
CENTER
100
AcDbLine
 10
12399.62885770414
 20
1361.280202700717
 30
0.0
 11
12378.10654998152
 21
1393.490612464267
 31
0.0
  0
CIRCLE
  5
A836
330
1F
100
AcDbEntity
  8
1
100
AcDbCircle
 10
12329.549337297
 20
1318.067041036659
 30
0.0
 40
13.5
  0
LINE
  5
A837
330
1F
100
AcDbEntity
  8
1
  6
CENTER
100
AcDbLine
 10
12345.65454217877
 20
1307.30588717534
 30
0.0
 11
12313.44413241522
 21
1328.828194897973
 31
0.0
  0
CIRCLE
  5
A838
330
1F
100
AcDbEntity
  8
1
100
AcDbCircle
 10
12297.44646865536
 20
1240.563860170912
 30
0.0
 40
13.5
  0
LINE
  5
A839
330
1F
100
AcDbEntity
  8
1
  6
CENTER
100
AcDbLine
 10
12316.44385310838
 20
1236.785045455333
 30
0.0
 11
12278.44908420232
 21
1244.342674886484
 31
0.0
  0
CIRCLE
  5
A83A
330
1F
100
AcDbEntity
  8
1
100
AcDbCircle
 10
12297.44646865535
 20
1156.675021703977
 30
0.0
 40
13.5
  0
LINE
  5
A83B
330
1F
100
AcDbEntity
  8
1
  6
CENTER
100
AcDbLine
 10
12316.44385310838
 20
1160.453836419547
 30
0.0
 11
12278.44908420232
 21
1152.896206988402
 31
0.0
  0
CIRCLE
  5
A83C
330
1F
100
AcDbEntity
  8
1
100
AcDbCircle
 10
12329.549337297
 20
1079.171840838232
 30
0.0
 40
13.5
  0
LINE
  5
A83D
330
1F
100
AcDbEntity
  8
1
  6
CENTER
100
AcDbLine
 10
12345.65454217878
 20
1089.932994699542
 30
0.0
 11
12313.44413241523
 21
1068.410686976915
 31
0.0
  0
CIRCLE
  5
A83E
330
1F
100
AcDbEntity
  8
1
100
AcDbCircle
 10
12388.86770384284
 20
1019.853474292396
 30
0.0
 40
13.5
  0
LINE
  5
A83F
330
1F
100
AcDbEntity
  8
1
  6
CENTER
100
AcDbLine
 10
12399.62885770415
 20
1035.958679174169
 30
0.0
 11
12378.10654998152
 21
1003.748269410624
 31
0.0
  0
CIRCLE
  5
A840
330
1F
100
AcDbEntity
  8
1
100
AcDbCircle
 10
12466.37088470859
 20
987.7506056507543
 30
0.0
 40
13.5
  0
LINE
  5
A841
330
1F
100
AcDbEntity
  8
1
  6
CENTER
100
AcDbLine
 10
12470.14969942416
 20
1006.74799010378
 30
0.0
 11
12462.59206999301
 21
968.7532211977233
 31
0.0
  0
CIRCLE
  5
A842
330
1F
100
AcDbEntity
  8
1
100
AcDbCircle
 10
12550.25972317552
 20
987.7506056507543
 30
0.0
 40
13.5
  0
LINE
  5
A843
330
1F
100
AcDbEntity
  8
1
  6
CENTER
100
AcDbLine
 10
12546.48090845995
 20
1006.747990103784
 30
0.0
 11
12554.03853789109
 21
968.7532211977256
 31
0.0
  0
CIRCLE
  5
A844
330
1F
100
AcDbEntity
  8
1
100
AcDbCircle
 10
12627.76290404127
 20
1019.853474292401
 30
0.0
 40
13.5
  0
LINE
  5
A845
330
1F
100
AcDbEntity
  8
1
  6
CENTER
100
AcDbLine
 10
12617.00175017995
 20
1035.958679174177
 30
0.0
 11
12638.52405790258
 21
1003.748269410628
 31
0.0
  0
CIRCLE
  5
A846
330
1F
100
AcDbEntity
  8
1
100
AcDbCircle
 10
12687.08127058709
 20
1079.171840838235
 30
0.0
 40
13.5
  0
LINE
  5
A847
330
1F
100
AcDbEntity
  8
1
  6
CENTER
100
AcDbLine
 10
12670.97606570533
 20
1089.932994699553
 30
0.0
 11
12703.18647546887
 21
1068.410686976922
 31
0.0
  0
CIRCLE
  5
A848
330
1F
100
AcDbEntity
  8
1
100
AcDbCircle
 10
12719.18413922874
 20
1156.67502170398
 30
0.0
 40
13.5
  0
LINE
  5
A849
330
1F
100
AcDbEntity
  8
1
  6
CENTER
100
AcDbLine
 10
12700.18675477571
 20
1160.453836419559
 30
0.0
 11
12738.18152368177
 21
1152.896206988409
 31
0.0
  0
CIRCLE
  5
A84A
330
1F
100
AcDbEntity
  8
1
100
AcDbCircle
 10
12719.18413922874
 20
1240.563860170919
 30
0.0
 40
13.5
  0
LINE
  5
A84B
330
1F
100
AcDbEntity
  8
1
  6
CENTER
100
AcDbLine
 10
12700.18675477571
 20
1236.785045455348
 30
0.0
 11
12738.18152368177
 21
1244.342674886493
 31
0.0
  0
CIRCLE
  5
A84C
330
1F
100
AcDbEntity
  8
1
100
AcDbCircle
 10
12687.08127058709
 20
1318.067041036665
 30
0.0
 40
13.5
  0
LINE
  5
A84D
330
1F
100
AcDbEntity
  8
1
  6
CENTER
100
AcDbLine
 10
12670.97606570532
 20
1307.305887175353
 30
0.0
 11
12703.18647546887
 21
1328.82819489798
 31
0.0
  0
CIRCLE
  5
A84E
330
1F
100
AcDbEntity
  8
1
100
AcDbCircle
 10
12627.76290404126
 20
1377.385407582496
 30
0.0
 40
13.5
  0
LINE
  5
A84F
330
1F
100
AcDbEntity
  8
1
  6
CENTER
100
AcDbLine
 10
12617.00175017994
 20
1361.280202700724
 30
0.0
 11
12638.52405790257
 21
1393.490612464272
 31
0.0
  0
CIRCLE
  5
A850
330
1F
100
AcDbEntity
  8
1
100
AcDbCircle
 10
12550.25972317552
 20
1409.488276224142
 30
0.0
 40
13.5
  0
LINE
  5
A851
330
1F
100
AcDbEntity
  8
1
  6
CENTER
100
AcDbLine
 10
12546.48090845994
 20
1390.490891771114
 30
0.0
 11
12554.03853789109
 21
1428.485660677171
 31
0.0
  0
LINE
  5
A8B1
330
1F
100
AcDbEntity
  8
1
100
AcDbLine
 10
13742.52170522905
 20
1468.619440937447
 30
0.0
 11
13778.52170522906
 21
1468.619440937447
 31
0.0
  0
LINE
  5
A8B2
330
1F
100
AcDbEntity
  8
1
100
AcDbLine
 10
13742.52170522905
 20
928.6194409374475
 30
0.0
 11
13778.52170522906
 21
928.6194409374475
 31
0.0
  0
CIRCLE
  5
A8BE
330
1F
100
AcDbEntity
  8
1
100
AcDbCircle
 10
13339.72275604507
 20
1198.619440937447
 30
0.0
 40
270.0
  0
CIRCLE
  5
A8BF
330
1F
100
AcDbEntity
  8
1
  6
CENTER
 48
2.0
100
AcDbCircle
 10
13339.72275604507
 20
1198.619440937447
 30
0.0
 40
240.0
  0
CIRCLE
  5
A919
330
1F
100
AcDbEntity
  8
1
100
AcDbCircle
 10
13206.38590012036
 20
1398.172147890058
 30
0.0
 40
16.5
  0
LINE
  5
A91A
330
1F
100
AcDbEntity
  8
1
  6
CENTER
100
AcDbLine
 10
13221.82581653008
 20
1375.064680016209
 30
0.0
 11
13190.94598371065
 21
1421.279615763905
 31
0.0
  0
CIRCLE
  5
A91B
330
1F
100
AcDbEntity
  8
1
100
AcDbCircle
 10
13140.17004909246
 20
1331.956296862153
 30
0.0
 40
16.5
  0
LINE
  5
A91C
330
1F
100
AcDbEntity
  8
1
  6
CENTER
100
AcDbLine
 10
13163.27751696631
 20
1316.516380452444
 30
0.0
 11
13117.06258121861
 21
1347.396213271862
 31
0.0
  0
CIRCLE
  5
A91D
330
1F
100
AcDbEntity
  8
1
100
AcDbCircle
 10
13104.33428874829
 20
1245.441118221317
 30
0.0
 40
16.5
  0
LINE
  5
A91E
330
1F
100
AcDbEntity
  8
1
  6
CENTER
100
AcDbLine
 10
13131.5914055722
 20
1240.019340585932
 30
0.0
 11
13077.07717192438
 21
1250.862895856702
 31
0.0
  0
CIRCLE
  5
A91F
330
1F
100
AcDbEntity
  8
1
100
AcDbCircle
 10
13104.33428874829
 20
1151.797763653576
 30
0.0
 40
16.5
  0
LINE
  5
A920
330
1F
100
AcDbEntity
  8
1
  6
CENTER
100
AcDbLine
 10
13131.5914055722
 20
1157.219541288966
 30
0.0
 11
13077.07717192438
 21
1146.375986018185
 31
0.0
  0
CIRCLE
  5
A921
330
1F
100
AcDbEntity
  8
1
100
AcDbCircle
 10
13140.17004909246
 20
1065.282585012745
 30
0.0
 40
16.5
  0
LINE
  5
A922
330
1F
100
AcDbEntity
  8
1
  6
CENTER
100
AcDbLine
 10
13163.2775169663
 20
1080.722501422457
 30
0.0
 11
13117.06258121861
 21
1049.842668603027
 31
0.0
  0
CIRCLE
  5
A923
330
1F
100
AcDbEntity
  8
1
100
AcDbCircle
 10
13206.38590012037
 20
999.066733984837
 30
0.0
 40
16.5
  0
LINE
  5
A924
330
1F
100
AcDbEntity
  8
1
  6
CENTER
100
AcDbLine
 10
13221.82581653007
 20
1022.174201858686
 30
0.0
 11
13190.94598371065
 21
975.9592661109834
 31
0.0
  0
CIRCLE
  5
A925
330
1F
100
AcDbEntity
  8
1
100
AcDbCircle
 10
13292.9010787612
 20
963.2309736406739
 30
0.0
 40
16.5
  0
LINE
  5
A926
330
1F
100
AcDbEntity
  8
1
  6
CENTER
100
AcDbLine
 10
13298.32285639658
 20
990.4880904645821
 30
0.0
 11
13287.47930112581
 21
935.9738568167612
 31
0.0
  0
CIRCLE
  5
A927
330
1F
100
AcDbEntity
  8
1
100
AcDbCircle
 10
13386.54443332894
 20
963.2309736406723
 30
0.0
 40
16.5
  0
LINE
  5
A928
330
1F
100
AcDbEntity
  8
1
  6
CENTER
100
AcDbLine
 10
13381.12265569355
 20
990.4880904645818
 30
0.0
 11
13391.96621096433
 21
935.9738568167623
 31
0.0
  0
CIRCLE
  5
A929
330
1F
100
AcDbEntity
  8
1
100
AcDbCircle
 10
13473.05961196977
 20
999.0667339848364
 30
0.0
 40
16.5
  0
LINE
  5
A92A
330
1F
100
AcDbEntity
  8
1
  6
CENTER
100
AcDbLine
 10
13457.61969556006
 20
1022.174201858685
 30
0.0
 11
13488.49952837949
 21
975.9592661109891
 31
0.0
  0
CIRCLE
  5
A92B
330
1F
100
AcDbEntity
  8
1
100
AcDbCircle
 10
13539.27546299768
 20
1065.282585012745
 30
0.0
 40
16.5
  0
LINE
  5
A92C
330
1F
100
AcDbEntity
  8
1
  6
CENTER
100
AcDbLine
 10
13516.16799512383
 20
1080.722501422453
 30
0.0
 11
13562.38293087153
 21
1049.842668603032
 31
0.0
  0
CIRCLE
  5
A92D
330
1F
100
AcDbEntity
  8
1
100
AcDbCircle
 10
13575.11122334184
 20
1151.797763653575
 30
0.0
 40
16.5
  0
LINE
  5
A92E
330
1F
100
AcDbEntity
  8
1
  6
CENTER
100
AcDbLine
 10
13547.85410651793
 20
1157.219541288961
 30
0.0
 11
13602.36834016576
 21
1146.375986018191
 31
0.0
  0
CIRCLE
  5
A92F
330
1F
100
AcDbEntity
  8
1
100
AcDbCircle
 10
13575.11122334184
 20
1245.441118221319
 30
0.0
 40
16.5
  0
LINE
  5
A930
330
1F
100
AcDbEntity
  8
1
  6
CENTER
100
AcDbLine
 10
13547.85410651793
 20
1240.019340585928
 30
0.0
 11
13602.36834016576
 21
1250.86289585671
 31
0.0
  0
CIRCLE
  5
A931
330
1F
100
AcDbEntity
  8
1
100
AcDbCircle
 10
13539.27546299768
 20
1331.956296862152
 30
0.0
 40
16.5
  0
LINE
  5
A932
330
1F
100
AcDbEntity
  8
1
  6
CENTER
100
AcDbLine
 10
13516.16799512383
 20
1316.516380452438
 30
0.0
 11
13562.38293087153
 21
1347.396213271866
 31
0.0
  0
CIRCLE
  5
A933
330
1F
100
AcDbEntity
  8
1
100
AcDbCircle
 10
13473.05961196977
 20
1398.172147890059
 30
0.0
 40
16.5
  0
LINE
  5
A934
330
1F
100
AcDbEntity
  8
1
  6
CENTER
100
AcDbLine
 10
13457.61969556006
 20
1375.064680016208
 30
0.0
 11
13488.49952837948
 21
1421.279615763909
 31
0.0
  0
CIRCLE
  5
A935
330
1F
100
AcDbEntity
  8
1
100
AcDbCircle
 10
13386.54443332894
 20
1434.007908234223
 30
0.0
 40
16.5
  0
LINE
  5
A936
330
1F
100
AcDbEntity
  8
1
  6
CENTER
100
AcDbLine
 10
13381.12265569356
 20
1406.750791410313
 30
0.0
 11
13391.96621096433
 21
1461.265025058134
 31
0.0
  0
LINE
  5
A996
330
1F
100
AcDbEntity
  8
1
100
AcDbLine
 10
14885.47926795767
 20
1501.119440937447
 30
0.0
 11
14927.47926795766
 21
1501.119440937447
 31
0.0
  0
LINE
  5
A997
330
1F
100
AcDbEntity
  8
1
100
AcDbLine
 10
14885.47926795767
 20
896.1194409374471
 30
0.0
 11
14927.47926795766
 21
896.1194409374474
 31
0.0
  0
CIRCLE
  5
AA05
330
1F
100
AcDbEntity
  8
1
  6
CENTER
 48
2.0
100
AcDbCircle
 10
14391.23813726077
 20
1198.619440937447
 30
0.0
 40
270.0
  0
CIRCLE
  5
AA16
330
1F
100
AcDbEntity
  8
1
100
AcDbCircle
 10
14241.23417434548
 20
1423.116236259137
 30
0.0
 40
16.5
  0
LINE
  5
AA17
330
1F
100
AcDbEntity
  8
1
  6
CENTER
100
AcDbLine
 10
14254.06784672823
 20
1403.909288214948
 30
0.0
 11
14228.40050196273
 21
1442.323184303326
 31
0.0
  0
CIRCLE
  5
AA18
330
1F
100
AcDbEntity
  8
1
100
AcDbCircle
 10
14166.74134193909
 20
1348.623403852743
 30
0.0
 40
16.5
  0
LINE
  5
AA19
330
1F
100
AcDbEntity
  8
1
  6
CENTER
100
AcDbLine
 10
14185.94828998327
 20
1335.789731469989
 30
0.0
 11
14147.5343938949
 21
1361.457076235498
 31
0.0
  0
CIRCLE
  5
AA1A
330
1F
100
AcDbEntity
  8
1
100
AcDbCircle
 10
14126.42611155191
 20
1251.293827881803
 30
0.0
 40
16.5
  0
LINE
  5
AA1B
330
1F
100
AcDbEntity
  8
1
  6
CENTER
100
AcDbLine
 10
14149.08225152921
 20
1246.787241443229
 30
0.0
 11
14103.76997157459
 21
1255.800414320378
 31
0.0
  0
CIRCLE
  5
AA1C
330
1F
100
AcDbEntity
  8
1
100
AcDbCircle
 10
14126.4261115519
 20
1145.945053993094
 30
0.0
 40
16.5
  0
LINE
  5
AA1D
330
1F
100
AcDbEntity
  8
1
  6
CENTER
100
AcDbLine
 10
14149.08225152921
 20
1150.451640431665
 30
0.0
 11
14103.76997157459
 21
1141.438467554524
 31
0.0
  0
CIRCLE
  5
AA1E
330
1F
100
AcDbEntity
  8
1
100
AcDbCircle
 10
14166.74134193908
 20
1048.615478022157
 30
0.0
 40
16.5
  0
LINE
  5
AA1F
330
1F
100
AcDbEntity
  8
1
  6
CENTER
100
AcDbLine
 10
14185.94828998327
 20
1061.449150404905
 30
0.0
 11
14147.5343938949
 21
1035.781805639404
 31
0.0
  0
CIRCLE
  5
AA20
330
1F
100
AcDbEntity
  8
1
100
AcDbCircle
 10
14241.23417434548
 20
974.1226456157628
 30
0.0
 40
16.5
  0
LINE
  5
AA21
330
1F
100
AcDbEntity
  8
1
  6
CENTER
100
AcDbLine
 10
14254.06784672823
 20
993.3295936599479
 30
0.0
 11
14228.40050196272
 21
954.9156975715739
 31
0.0
  0
CIRCLE
  5
AA22
330
1F
100
AcDbEntity
  8
1
100
AcDbCircle
 10
14338.56375031641
 20
933.8074152285781
 30
0.0
 40
16.5
  0
LINE
  5
AA23
330
1F
100
AcDbEntity
  8
1
  6
CENTER
100
AcDbLine
 10
14343.07033675499
 20
956.463555205889
 30
0.0
 11
14334.05716387784
 21
911.1512752512616
 31
0.0
  0
CIRCLE
  5
AA24
330
1F
100
AcDbEntity
  8
1
100
AcDbCircle
 10
14443.91252420512
 20
933.807415228575
 30
0.0
 40
16.5
  0
LINE
  5
AA25
330
1F
100
AcDbEntity
  8
1
  6
CENTER
100
AcDbLine
 10
14439.40593776655
 20
956.463555205889
 30
0.0
 11
14448.41911064369
 21
911.1512752512599
 31
0.0
  0
CIRCLE
  5
AA26
330
1F
100
AcDbEntity
  8
1
100
AcDbCircle
 10
14541.24210017606
 20
974.1226456157574
 30
0.0
 40
16.5
  0
LINE
  5
AA27
330
1F
100
AcDbEntity
  8
1
  6
CENTER
100
AcDbLine
 10
14528.40842779331
 20
993.3295936599479
 30
0.0
 11
14554.07577255881
 21
954.9156975715696
 31
0.0
  0
CIRCLE
  5
AA28
330
1F
100
AcDbEntity
  8
1
100
AcDbCircle
 10
14615.73493258246
 20
1048.615478022157
 30
0.0
 40
16.5
  0
LINE
  5
AA29
330
1F
100
AcDbEntity
  8
1
  6
CENTER
100
AcDbLine
 10
14596.52798453827
 20
1061.449150404907
 30
0.0
 11
14634.94188062665
 21
1035.781805639399
 31
0.0
  0
CIRCLE
  5
AA2A
330
1F
100
AcDbEntity
  8
1
100
AcDbCircle
 10
14656.05016296964
 20
1145.945053993091
 30
0.0
 40
16.5
  0
LINE
  5
AA2B
330
1F
100
AcDbEntity
  8
1
  6
CENTER
100
AcDbLine
 10
14633.39402299233
 20
1150.451640431664
 30
0.0
 11
14678.70630294696
 21
1141.438467554517
 31
0.0
  0
CIRCLE
  5
AA2C
330
1F
100
AcDbEntity
  8
1
100
AcDbCircle
 10
14656.05016296964
 20
1251.293827881801
 30
0.0
 40
16.5
  0
LINE
  5
AA2D
330
1F
100
AcDbEntity
  8
1
  6
CENTER
100
AcDbLine
 10
14633.39402299233
 20
1246.787241443229
 30
0.0
 11
14678.70630294696
 21
1255.80041432037
 31
0.0
  0
CIRCLE
  5
AA2E
330
1F
100
AcDbEntity
  8
1
100
AcDbCircle
 10
14615.73493258246
 20
1348.623403852737
 30
0.0
 40
16.5
  0
LINE
  5
AA2F
330
1F
100
AcDbEntity
  8
1
  6
CENTER
100
AcDbLine
 10
14596.52798453827
 20
1335.789731469986
 30
0.0
 11
14634.94188062665
 21
1361.457076235487
 31
0.0
  0
CIRCLE
  5
AA30
330
1F
100
AcDbEntity
  8
1
100
AcDbCircle
 10
14541.24210017607
 20
1423.116236259132
 30
0.0
 40
16.5
  0
LINE
  5
AA31
330
1F
100
AcDbEntity
  8
1
  6
CENTER
100
AcDbLine
 10
14528.40842779331
 20
1403.909288214947
 30
0.0
 11
14554.07577255882
 21
1442.323184303321
 31
0.0
  0
CIRCLE
  5
AA32
330
1F
100
AcDbEntity
  8
1
100
AcDbCircle
 10
14443.91252420513
 20
1463.43146664632
 30
0.0
 40
16.5
  0
LINE
  5
AA33
330
1F
100
AcDbEntity
  8
1
  6
CENTER
100
AcDbLine
 10
14439.40593776655
 20
1440.775326669007
 30
0.0
 11
14448.4191106437
 21
1486.087606623634
 31
0.0
  0
LINE
  5
AA52
330
1F
100
AcDbEntity
  8
1
  6
CENTER
 48
2.0
100
AcDbLine
 10
15427.07719876649
 20
1198.619440937447
 30
0.0
 11
16126.18434162363
 21
1198.619440937447
 31
0.0
  0
LINE
  5
AA53
330
1F
100
AcDbEntity
  8
1
  6
CENTER
 48
2.0
100
AcDbLine
 10
15776.63077019506
 20
849.0658695088757
 30
0.0
 11
15776.63077019506
 21
1548.173012366018
 31
0.0
  0
CIRCLE
  5
AA56
330
1F
100
AcDbEntity
  8
1
100
AcDbCircle
 10
15776.63077019506
 20
1198.619440937447
 30
0.0
 40
337.5
  0
LINE
  5
AA57
330
1F
100
AcDbEntity
  8
1
100
AcDbLine
 10
16363.79132259403
 20
1478.619440937447
 30
0.0
 11
16363.79132259403
 21
918.6194409374476
 31
0.0
  0
LINE
  5
AA59
330
1F
100
AcDbEntity
  8
1
100
AcDbLine
 10
16411.79132259401
 20
1535.119440937446
 30
0.0
 11
16411.79132259403
 21
862.1194409374474
 31
0.0
  0
LINE
  5
AA5A
330
1F
100
AcDbEntity
  8
1
  6
CENTER
100
AcDbLine
 10
16344.77072392086
 20
1198.619440937447
 30
0.0
 11
16457.69819039595
 21
1198.619440937447
 31
0.0
  0
LINE
  5
AA5B
330
1F
100
AcDbEntity
  8
1
  6
CENTER
100
AcDbLine
 10
16351.51067747986
 20
1501.119440937447
 30
0.0
 11
16422.16782667679
 21
1501.119440937447
 31
0.0
  0
LINE
  5
AA5C
330
1F
100
AcDbEntity
  8
1
  6
PHANTOM
100
AcDbLine
 10
16363.79132259403
 20
1427.219440937446
 30
0.0
 11
16489.79132259402
 21
1427.219440937446
 31
0.0
  0
LINE
  5
AA5D
330
1F
100
AcDbEntity
  8
1
  6
PHANTOM
100
AcDbLine
 10
16363.79132259403
 20
1419.319440937448
 30
0.0
 11
16489.79132259402
 21
1419.319440937447
 31
0.0
  0
LINE
  5
AA5E
330
1F
100
AcDbEntity
  8
1
  6
HIDDEN
100
AcDbLine
 10
16441.79132259403
 20
1428.619440937446
 30
0.0
 11
16363.79132259403
 21
1428.619440937446
 31
0.0
  0
LINE
  5
AA5F
330
1F
100
AcDbEntity
  8
1
  6
CENTER
100
AcDbLine
 10
16353.51067747986
 20
896.1194409374474
 30
0.0
 11
16418.38912720979
 21
896.1194409374474
 31
0.0
  0
LINE
  5
AA60
330
1F
100
AcDbEntity
  8
1
  6
PHANTOM
100
AcDbLine
 10
16363.79132259403
 20
970.019440937447
 30
0.0
 11
16489.79132259402
 21
970.0194409374473
 31
0.0
  0
LINE
  5
AA61
330
1F
100
AcDbEntity
  8
1
  6
PHANTOM
100
AcDbLine
 10
16363.79132259403
 20
977.9194409374454
 30
0.0
 11
16489.79132259402
 21
977.9194409374465
 31
0.0
  0
LINE
  5
AA62
330
1F
100
AcDbEntity
  8
1
  6
HIDDEN
100
AcDbLine
 10
16441.79132259403
 20
968.6194409374474
 30
0.0
 11
16363.79132259403
 21
968.6194409374472
 31
0.0
  0
LINE
  5
AA63
330
1F
100
AcDbEntity
  8
1
100
AcDbLine
 10
16366.79132259403
 20
861.1194409374475
 30
0.0
 11
16410.79132259403
 21
861.1194409374475
 31
0.0
  0
CIRCLE
  5
AA64
330
1F
100
AcDbEntity
  8
1
100
AcDbCircle
 10
15729.30934452039
 20
1497.395163967478
 30
0.0
 40
16.5
  0
LINE
  5
AA65
330
1F
100
AcDbEntity
  8
1
  6
CENTER
100
AcDbLine
 10
15732.92298066282
 20
1474.579563299731
 30
0.0
 11
15725.69570837797
 21
1520.210764635226
 31
0.0
  0
LINE
  5
AA66
330
1F
100
AcDbEntity
  8
1
  6
HIDDEN
100
AcDbLine
 10
16411.79132259401
 20
1484.619440937447
 30
0.0
 11
16366.79132259403
 21
1484.619440937447
 31
0.0
  0
LINE
  5
AA67
330
1F
100
AcDbEntity
  8
1
100
AcDbLine
 10
16366.79132259403
 20
1536.119440937446
 30
0.0
 11
16410.79132259401
 21
1536.119440937446
 31
0.0
  0
LINE
  5
AA68
330
1F
100
AcDbEntity
  8
1
  6
HIDDEN
100
AcDbLine
 10
16411.79132259403
 20
879.619440937447
 30
0.0
 11
16366.79132259403
 21
879.619440937447
 31
0.0
  0
LINE
  5
AA69
330
1F
100
AcDbEntity
  8
1
  6
HIDDEN
100
AcDbLine
 10
16411.79132259401
 20
1517.619440937447
 30
0.0
 11
16366.79132259403
 21
1517.619440937446
 31
0.0
  0
LINE
  5
AA6A
330
1F
100
AcDbEntity
  8
1
  6
HIDDEN
100
AcDbLine
 10
16411.79132259403
 20
912.6194409374472
 30
0.0
 11
16366.79132259403
 21
912.6194409374475
 31
0.0
  0
MTEXT
  5
AA6B
330
1F
100
AcDbEntity
  8
1
100
AcDbMText
 10
16322.58370208651
 20
780.9176650273453
 30
0.0
 40
40.0
 41
160.415524151791
 71
     1
 72
     5
  1
SOH-A
 73
     1
 44
1.0
1001
ACAD
1000
MTEXTBEGIN
1070
    73
1070
     1
1070
    44
1040
1.0
1070
    74
1070
     0
1000
MTEXTEND
  0
CIRCLE
  5
AB16
330
1F
100
AcDbEntity
  8
1
  6
CENTER
 48
2.0
100
AcDbCircle
 10
15776.63077019506
 20
1198.619440937447
 30
0.0
 40
302.5
  0
CIRCLE
  5
AB18
330
1F
100
AcDbEntity
  8
1
100
AcDbCircle
 10
15639.29864402385
 20
1468.14891450443
 30
0.0
 40
16.5
  0
LINE
  5
AB19
330
1F
100
AcDbEntity
  8
1
  6
CENTER
100
AcDbLine
 10
15649.78582456783
 20
1447.56666379568
 30
0.0
 11
15628.81146347987
 21
1488.731165213183
 31
0.0
  0
CIRCLE
  5
AB1A
330
1F
100
AcDbEntity
  8
1
100
AcDbCircle
 10
15562.73096888614
 20
1412.519242246379
 30
0.0
 40
16.5
  0
LINE
  5
AB1B
330
1F
100
AcDbEntity
  8
1
  6
CENTER
100
AcDbLine
 10
15579.06513553154
 20
1396.18507560097
 30
0.0
 11
15546.39680224072
 21
1428.853408891789
 31
0.0
  0
CIRCLE
  5
AB1C
330
1F
100
AcDbEntity
  8
1
100
AcDbCircle
 10
15507.10129662808
 20
1335.951567108664
 30
0.0
 40
16.5
  0
LINE
  5
AB1D
330
1F
100
AcDbEntity
  8
1
  6
CENTER
100
AcDbLine
 10
15527.68354733683
 20
1325.464386564678
 30
0.0
 11
15486.51904591933
 21
1346.438747652648
 31
0.0
  0
CIRCLE
  5
AB1E
330
1F
100
AcDbEntity
  8
1
100
AcDbCircle
 10
15477.85504716503
 20
1245.94086661212
 30
0.0
 40
16.5
  0
LINE
  5
AB1F
330
1F
100
AcDbEntity
  8
1
  6
CENTER
100
AcDbLine
 10
15500.67064783278
 20
1242.327230469689
 30
0.0
 11
15455.03944649728
 21
1249.554502754552
 31
0.0
  0
CIRCLE
  5
AB20
330
1F
100
AcDbEntity
  8
1
100
AcDbCircle
 10
15477.85504716503
 20
1151.298015262781
 30
0.0
 40
16.5
  0
LINE
  5
AB21
330
1F
100
AcDbEntity
  8
1
  6
CENTER
100
AcDbLine
 10
15500.67064783278
 20
1154.911651405207
 30
0.0
 11
15455.03944649728
 21
1147.684379120353
 31
0.0
  0
CIRCLE
  5
AB22
330
1F
100
AcDbEntity
  8
1
100
AcDbCircle
 10
15507.10129662808
 20
1061.287314766239
 30
0.0
 40
16.5
  0
LINE
  5
AB23
330
1F
100
AcDbEntity
  8
1
  6
CENTER
100
AcDbLine
 10
15527.68354733683
 20
1071.774495310217
 30
0.0
 11
15486.51904591932
 21
1050.800134222256
 31
0.0
  0
CIRCLE
  5
AB24
330
1F
100
AcDbEntity
  8
1
100
AcDbCircle
 10
15562.73096888613
 20
984.719639628518
 30
0.0
 40
16.5
  0
LINE
  5
AB25
330
1F
100
AcDbEntity
  8
1
  6
CENTER
100
AcDbLine
 10
15579.06513553154
 20
1001.053806273927
 30
0.0
 11
15546.39680224072
 21
968.3854729831127
 31
0.0
  0
CIRCLE
  5
AB26
330
1F
100
AcDbEntity
  8
1
100
AcDbCircle
 10
15639.29864402385
 20
929.089967370468
 30
0.0
 40
16.5
  0
LINE
  5
AB27
330
1F
100
AcDbEntity
  8
1
  6
CENTER
100
AcDbLine
 10
15649.78582456783
 20
949.6722180792147
 30
0.0
 11
15628.81146347986
 21
908.5077166617157
 31
0.0
  0
CIRCLE
  5
AB28
330
1F
100
AcDbEntity
  8
1
100
AcDbCircle
 10
15729.30934452039
 20
899.8437179074171
 30
0.0
 40
16.5
  0
LINE
  5
AB29
330
1F
100
AcDbEntity
  8
1
  6
CENTER
100
AcDbLine
 10
15732.92298066282
 20
922.6593185751642
 30
0.0
 11
15725.69570837796
 21
877.0281172396707
 31
0.0
  0
CIRCLE
  5
AB2A
330
1F
100
AcDbEntity
  8
1
100
AcDbCircle
 10
15823.95219586973
 20
899.8437179074176
 30
0.0
 40
16.5
  0
LINE
  5
AB2B
330
1F
100
AcDbEntity
  8
1
  6
CENTER
100
AcDbLine
 10
15820.3385597273
 20
922.6593185751646
 30
0.0
 11
15827.56583201216
 21
877.0281172396698
 31
0.0
  0
CIRCLE
  5
AB2C
330
1F
100
AcDbEntity
  8
1
100
AcDbCircle
 10
15913.96289636627
 20
929.0899673704643
 30
0.0
 40
16.5
  0
LINE
  5
AB2D
330
1F
100
AcDbEntity
  8
1
  6
CENTER
100
AcDbLine
 10
15903.47571582229
 20
949.6722180792147
 30
0.0
 11
15924.45007691025
 21
908.507716661712
 31
0.0
  0
CIRCLE
  5
AB2E
330
1F
100
AcDbEntity
  8
1
100
AcDbCircle
 10
15990.53057150399
 20
984.7196396285143
 30
0.0
 40
16.5
  0
LINE
  5
AB2F
330
1F
100
AcDbEntity
  8
1
  6
CENTER
100
AcDbLine
 10
15974.19640485858
 20
1001.053806273925
 30
0.0
 11
16006.8647381494
 21
968.3854729831036
 31
0.0
  0
CIRCLE
  5
AB30
330
1F
100
AcDbEntity
  8
1
100
AcDbCircle
 10
16046.16024376204
 20
1061.28731476623
 30
0.0
 40
16.5
  0
LINE
  5
AB31
330
1F
100
AcDbEntity
  8
1
  6
CENTER
100
AcDbLine
 10
16025.57799305329
 20
1071.774495310219
 30
0.0
 11
16066.74249447079
 21
1050.800134222247
 31
0.0
  0
CIRCLE
  5
AB32
330
1F
100
AcDbEntity
  8
1
100
AcDbCircle
 10
16075.40649322509
 20
1151.298015262771
 30
0.0
 40
16.5
  0
LINE
  5
AB33
330
1F
100
AcDbEntity
  8
1
  6
CENTER
100
AcDbLine
 10
16052.59089255734
 20
1154.911651405207
 30
0.0
 11
16098.22209389284
 21
1147.684379120344
 31
0.0
  0
CIRCLE
  5
AB34
330
1F
100
AcDbEntity
  8
1
100
AcDbCircle
 10
16075.40649322509
 20
1245.940866612113
 30
0.0
 40
16.5
  0
LINE
  5
AB35
330
1F
100
AcDbEntity
  8
1
  6
CENTER
100
AcDbLine
 10
16052.59089255734
 20
1242.327230469687
 30
0.0
 11
16098.22209389284
 21
1249.554502754541
 31
0.0
  0
CIRCLE
  5
AB36
330
1F
100
AcDbEntity
  8
1
100
AcDbCircle
 10
16046.16024376205
 20
1335.951567108656
 30
0.0
 40
16.5
  0
LINE
  5
AB37
330
1F
100
AcDbEntity
  8
1
  6
CENTER
100
AcDbLine
 10
16025.57799305329
 20
1325.464386564676
 30
0.0
 11
16066.74249447079
 21
1346.438747652639
 31
0.0
  0
CIRCLE
  5
AB38
330
1F
100
AcDbEntity
  8
1
100
AcDbCircle
 10
15990.53057150399
 20
1412.519242246376
 30
0.0
 40
16.5
  0
LINE
  5
AB39
330
1F
100
AcDbEntity
  8
1
  6
CENTER
100
AcDbLine
 10
15974.19640485858
 20
1396.18507560097
 30
0.0
 11
16006.8647381494
 21
1428.853408891784
 31
0.0
  0
CIRCLE
  5
AB3A
330
1F
100
AcDbEntity
  8
1
100
AcDbCircle
 10
15913.96289636628
 20
1468.148914504428
 30
0.0
 40
16.5
  0
LINE
  5
AB3B
330
1F
100
AcDbEntity
  8
1
  6
CENTER
100
AcDbLine
 10
15903.47571582229
 20
1447.566663795677
 30
0.0
 11
15924.45007691026
 21
1488.731165213177
 31
0.0
  0
CIRCLE
  5
AB3C
330
1F
100
AcDbEntity
  8
1
100
AcDbCircle
 10
15823.95219586973
 20
1497.395163967478
 30
0.0
 40
16.5
  0
LINE
  5
AB3D
330
1F
100
AcDbEntity
  8
1
  6
CENTER
100
AcDbLine
 10
15820.3385597273
 20
1474.57956329973
 30
0.0
 11
15827.56583201217
 21
1520.210764635224
 31
0.0
  0
CIRCLE
  5
AB3E
330
1F
100
AcDbEntity
  8
1
100
AcDbCircle
 10
15776.63077019506
 20
1198.619440937447
 30
0.0
 40
230.0
  0
LINE
  5
AC4B
330
1F
100
AcDbEntity
  8
1
  6
CENTER
 48
2.0
100
AcDbLine
 10
17057.14582678083
 20
1198.619440937447
 30
0.0
 11
17813.21725535226
 21
1198.619440937447
 31
0.0
  0
LINE
  5
AC4C
330
1F
100
AcDbEntity
  8
1
  6
CENTER
 48
2.0
100
AcDbLine
 10
17435.18154106654
 20
820.5837266517328
 30
0.0
 11
17435.18154106654
 21
1576.655155223161
 31
0.0
  0
CIRCLE
  5
AC4F
330
1F
100
AcDbEntity
  8
1
100
AcDbCircle
 10
17435.18154106654
 20
1198.619440937447
 30
0.0
 40
365.0
  0
LINE
  5
AC50
330
1F
100
AcDbEntity
  8
1
100
AcDbLine
 10
18022.34209346552
 20
1506.119440937447
 30
0.0
 11
18022.34209346552
 21
891.1194409374472
 31
0.0
  0
LINE
  5
AC52
330
1F
100
AcDbEntity
  8
1
100
AcDbLine
 10
18072.3420934655
 20
1562.619440937447
 30
0.0
 11
18072.34209346552
 21
834.6194409374474
 31
0.0
  0
LINE
  5
AC53
330
1F
100
AcDbEntity
  8
1
  6
CENTER
100
AcDbLine
 10
18003.32149479235
 20
1198.619440937447
 30
0.0
 11
18127.91571701798
 21
1198.619440937447
 31
0.0
  0
LINE
  5
AC54
330
1F
100
AcDbEntity
  8
1
  6
CENTER
100
AcDbLine
 10
18010.06144835135
 20
1528.619440937447
 30
0.0
 11
18080.71859754828
 21
1528.619440937447
 31
0.0
  0
LINE
  5
AC55
330
1F
100
AcDbEntity
  8
1
  6
PHANTOM
100
AcDbLine
 10
18022.34209346552
 20
1452.619440937447
 30
0.0
 11
18148.34209346551
 21
1452.619440937447
 31
0.0
  0
LINE
  5
AC56
330
1F
100
AcDbEntity
  8
1
  6
PHANTOM
100
AcDbLine
 10
18022.34209346552
 20
1444.719440937448
 30
0.0
 11
18148.34209346551
 21
1444.719440937447
 31
0.0
  0
LINE
  5
AC57
330
1F
100
AcDbEntity
  8
1
  6
HIDDEN
100
AcDbLine
 10
18106.34209346552
 20
1454.119440937446
 30
0.0
 11
18022.34209346552
 21
1454.119440937446
 31
0.0
  0
LINE
  5
AC58
330
1F
100
AcDbEntity
  8
1
  6
CENTER
100
AcDbLine
 10
18012.06144835135
 20
868.6194409374474
 30
0.0
 11
18076.93989808128
 21
868.6194409374474
 31
0.0
  0
LINE
  5
AC59
330
1F
100
AcDbEntity
  8
1
  6
PHANTOM
100
AcDbLine
 10
18022.34209346552
 20
944.619440937447
 30
0.0
 11
18148.34209346551
 21
944.6194409374472
 31
0.0
  0
LINE
  5
AC5A
330
1F
100
AcDbEntity
  8
1
  6
PHANTOM
100
AcDbLine
 10
18022.34209346552
 20
952.5194409374456
 30
0.0
 11
18148.34209346551
 21
952.5194409374464
 31
0.0
  0
LINE
  5
AC5B
330
1F
100
AcDbEntity
  8
1
  6
HIDDEN
100
AcDbLine
 10
18106.34209346552
 20
943.1194409374471
 30
0.0
 11
18022.34209346552
 21
943.1194409374471
 31
0.0
  0
LINE
  5
AC5C
330
1F
100
AcDbEntity
  8
1
100
AcDbLine
 10
18025.34209346552
 20
833.6194409374474
 30
0.0
 11
18071.34209346552
 21
833.6194409374474
 31
0.0
  0
CIRCLE
  5
AC5D
330
1F
100
AcDbEntity
  8
1
100
AcDbCircle
 10
17383.55816760328
 20
1524.556593333845
 30
0.0
 40
16.5
  0
LINE
  5
AC5E
330
1F
100
AcDbEntity
  8
1
  6
CENTER
100
AcDbLine
 10
17387.1718037457
 20
1501.740992666098
 30
0.0
 11
17379.94453146086
 21
1547.372194001592
 31
0.0
  0
LINE
  5
AC5F
330
1F
100
AcDbEntity
  8
1
  6
HIDDEN
100
AcDbLine
 10
18072.3420934655
 20
1512.119440937446
 30
0.0
 11
18025.34209346552
 21
1512.119440937446
 31
0.0
  0
LINE
  5
AC60
330
1F
100
AcDbEntity
  8
1
100
AcDbLine
 10
18025.34209346552
 20
1563.619440937446
 30
0.0
 11
18071.3420934655
 21
1563.619440937447
 31
0.0
  0
LINE
  5
AC61
330
1F
100
AcDbEntity
  8
1
  6
HIDDEN
100
AcDbLine
 10
18072.34209346552
 20
852.1194409374469
 30
0.0
 11
18025.34209346552
 21
852.1194409374469
 31
0.0
  0
LINE
  5
AC62
330
1F
100
AcDbEntity
  8
1
  6
HIDDEN
100
AcDbLine
 10
18072.3420934655
 20
1545.119440937447
 30
0.0
 11
18025.34209346552
 21
1545.119440937446
 31
0.0
  0
LINE
  5
AC63
330
1F
100
AcDbEntity
  8
1
  6
HIDDEN
100
AcDbLine
 10
18072.34209346552
 20
885.1194409374469
 30
0.0
 11
18025.34209346552
 21
885.1194409374469
 31
0.0
  0
MTEXT
  5
AC64
330
1F
100
AcDbEntity
  8
1
100
AcDbMText
 10
17989.83095258723
 20
762.3418909979608
 30
0.0
 40
40.0
 41
160.415524151791
 71
     1
 72
     5
  1
SOH-A
 73
     1
 44
1.0
1001
ACAD
1000
MTEXTBEGIN
1070
    73
1070
     1
1070
    44
1040
1.0
1070
    74
1070
     0
1000
MTEXTEND
  0
CIRCLE
  5
AD41
330
1F
100
AcDbEntity
  8
1
  6
CENTER
 48
2.0
100
AcDbCircle
 10
17435.18154106654
 20
1198.619440937447
 30
0.0
 40
330.0
  0
CIRCLE
  5
AD55
330
1F
100
AcDbEntity
  8
1
100
AcDbCircle
 10
17285.36467615251
 20
1492.651593919615
 30
0.0
 40
16.5
  0
LINE
  5
AD56
330
1F
100
AcDbEntity
  8
1
  6
CENTER
100
AcDbLine
 10
17295.85185669648
 20
1472.069343210863
 30
0.0
 11
17274.87749560852
 21
1513.233844628367
 31
0.0
  0
CIRCLE
  5
AD57
330
1F
100
AcDbEntity
  8
1
100
AcDbCircle
 10
17201.83630327499
 20
1431.964678729016
 30
0.0
 40
16.5
  0
LINE
  5
AD58
330
1F
100
AcDbEntity
  8
1
  6
CENTER
100
AcDbLine
 10
17218.1704699204
 20
1415.630512083606
 30
0.0
 11
17185.50213662959
 21
1448.298845374429
 31
0.0
  0
CIRCLE
  5
AD59
330
1F
100
AcDbEntity
  8
1
100
AcDbCircle
 10
17141.14938808439
 20
1348.436305851511
 30
0.0
 40
16.5
  0
LINE
  5
AD5A
330
1F
100
AcDbEntity
  8
1
  6
CENTER
100
AcDbLine
 10
17161.73163879314
 20
1337.949125307525
 30
0.0
 11
17120.56713737564
 21
1358.923486395499
 31
0.0
  0
CIRCLE
  5
AD5B
330
1F
100
AcDbEntity
  8
1
100
AcDbCircle
 10
17109.24438867015
 20
1250.242814400736
 30
0.0
 40
16.5
  0
LINE
  5
AD5C
330
1F
100
AcDbEntity
  8
1
  6
CENTER
100
AcDbLine
 10
17132.0599893379
 20
1246.629178258303
 30
0.0
 11
17086.4287880024
 21
1253.856450543175
 31
0.0
  0
CIRCLE
  5
AD5D
330
1F
100
AcDbEntity
  8
1
100
AcDbCircle
 10
17109.24438867015
 20
1146.996067474185
 30
0.0
 40
16.5
  0
LINE
  5
AD5E
330
1F
100
AcDbEntity
  8
1
  6
CENTER
100
AcDbLine
 10
17132.0599893379
 20
1150.60970361661
 30
0.0
 11
17086.4287880024
 21
1143.38243133176
 31
0.0
  0
CIRCLE
  5
AD5F
330
1F
100
AcDbEntity
  8
1
100
AcDbCircle
 10
17141.14938808438
 20
1048.802576023409
 30
0.0
 40
16.5
  0
LINE
  5
AD60
330
1F
100
AcDbEntity
  8
1
  6
CENTER
100
AcDbLine
 10
17161.73163879313
 20
1059.289756567386
 30
0.0
 11
17120.56713737561
 21
1038.315395479427
 31
0.0
  0
CIRCLE
  5
AD61
330
1F
100
AcDbEntity
  8
1
100
AcDbCircle
 10
17201.83630327497
 20
965.2742031458949
 30
0.0
 40
16.5
  0
LINE
  5
AD62
330
1F
100
AcDbEntity
  8
1
  6
CENTER
100
AcDbLine
 10
17218.17046992038
 20
981.6083697913015
 30
0.0
 11
17185.50213662956
 21
948.9400365004911
 31
0.0
  0
CIRCLE
  5
AD63
330
1F
100
AcDbEntity
  8
1
100
AcDbCircle
 10
17285.36467615248
 20
904.5872879552906
 30
0.0
 40
16.5
  0
LINE
  5
AD64
330
1F
100
AcDbEntity
  8
1
  6
CENTER
100
AcDbLine
 10
17295.85185669647
 20
925.1695386640422
 30
0.0
 11
17274.87749560849
 21
884.005037246543
 31
0.0
  0
CIRCLE
  5
AD65
330
1F
100
AcDbEntity
  8
1
100
AcDbCircle
 10
17383.55816760325
 20
872.6822885410554
 30
0.0
 40
16.5
  0
LINE
  5
AD66
330
1F
100
AcDbEntity
  8
1
  6
CENTER
100
AcDbLine
 10
17387.17180374568
 20
895.4978892088011
 30
0.0
 11
17379.94453146082
 21
849.8666878733084
 31
0.0
  0
CIRCLE
  5
AD67
330
1F
100
AcDbEntity
  8
1
100
AcDbCircle
 10
17486.8049145298
 20
872.6822885410507
 30
0.0
 40
16.5
  0
LINE
  5
AD68
330
1F
100
AcDbEntity
  8
1
  6
CENTER
100
AcDbLine
 10
17483.19127838738
 20
895.4978892087977
 30
0.0
 11
17490.41855067223
 21
849.8666878733029
 31
0.0
  0
CIRCLE
  5
AD69
330
1F
100
AcDbEntity
  8
1
100
AcDbCircle
 10
17584.99840598058
 20
904.5872879552799
 30
0.0
 40
16.5
  0
LINE
  5
AD6A
330
1F
100
AcDbEntity
  8
1
  6
CENTER
100
AcDbLine
 10
17574.5112254366
 20
925.1695386640312
 30
0.0
 11
17595.48558652456
 21
884.0050372465267
 31
0.0
  0
CIRCLE
  5
AD6B
330
1F
100
AcDbEntity
  8
1
100
AcDbCircle
 10
17668.52677885809
 20
965.274203145881
 30
0.0
 40
16.5
  0
LINE
  5
AD6C
330
1F
100
AcDbEntity
  8
1
  6
CENTER
100
AcDbLine
 10
17652.19261221269
 20
981.608369791289
 30
0.0
 11
17684.8609455035
 21
948.9400365004657
 31
0.0
  0
CIRCLE
  5
AD6D
330
1F
100
AcDbEntity
  8
1
100
AcDbCircle
 10
17729.2136940487
 20
1048.802576023384
 30
0.0
 40
16.5
  0
LINE
  5
AD6E
330
1F
100
AcDbEntity
  8
1
  6
CENTER
100
AcDbLine
 10
17708.63144333995
 20
1059.289756567372
 30
0.0
 11
17749.79594475745
 21
1038.315395479398
 31
0.0
  0
CIRCLE
  5
AD6F
330
1F
100
AcDbEntity
  8
1
100
AcDbCircle
 10
17761.11869346294
 20
1146.996067474157
 30
0.0
 40
16.5
  0
LINE
  5
AD70
330
1F
100
AcDbEntity
  8
1
  6
CENTER
100
AcDbLine
 10
17738.30309279519
 20
1150.609703616592
 30
0.0
 11
17783.93429413068
 21
1143.382431331727
 31
0.0
  0
CIRCLE
  5
AD71
330
1F
100
AcDbEntity
  8
1
100
AcDbCircle
 10
17761.11869346294
 20
1250.242814400709
 30
0.0
 40
16.5
  0
LINE
  5
AD72
330
1F
100
AcDbEntity
  8
1
  6
CENTER
100
AcDbLine
 10
17738.30309279519
 20
1246.629178258285
 30
0.0
 11
17783.93429413069
 21
1253.856450543135
 31
0.0
  0
CIRCLE
  5
AD73
330
1F
100
AcDbEntity
  8
1
100
AcDbCircle
 10
17729.21369404871
 20
1348.436305851486
 30
0.0
 40
16.5
  0
LINE
  5
AD74
330
1F
100
AcDbEntity
  8
1
  6
CENTER
100
AcDbLine
 10
17708.63144333996
 20
1337.949125307506
 30
0.0
 11
17749.79594475746
 21
1358.923486395466
 31
0.0
  0
CIRCLE
  5
AD75
330
1F
100
AcDbEntity
  8
1
100
AcDbCircle
 10
17668.52677885811
 20
1431.964678729
 30
0.0
 40
16.5
  0
LINE
  5
AD76
330
1F
100
AcDbEntity
  8
1
  6
CENTER
100
AcDbLine
 10
17652.1926122127
 20
1415.630512083593
 30
0.0
 11
17684.86094550352
 21
1448.298845374405
 31
0.0
  0
CIRCLE
  5
AD77
330
1F
100
AcDbEntity
  8
1
100
AcDbCircle
 10
17584.99840598061
 20
1492.651593919603
 30
0.0
 40
16.5
  0
LINE
  5
AD78
330
1F
100
AcDbEntity
  8
1
  6
CENTER
100
AcDbLine
 10
17574.51122543661
 20
1472.069343210854
 30
0.0
 11
17595.48558652459
 21
1513.233844628352
 31
0.0
  0
CIRCLE
  5
AD79
330
1F
100
AcDbEntity
  8
1
100
AcDbCircle
 10
17486.80491452983
 20
1524.556593333841
 30
0.0
 40
16.5
  0
LINE
  5
AD7A
330
1F
100
AcDbEntity
  8
1
  6
CENTER
100
AcDbLine
 10
17483.1912783874
 20
1501.740992666095
 30
0.0
 11
17490.41855067225
 21
1547.372194001587
 31
0.0
  0
CIRCLE
  5
AD7B
330
1F
100
AcDbEntity
  8
1
100
AcDbCircle
 10
17435.18154106654
 20
1198.619440937447
 30
0.0
 40
255.5
  0
LINE
  5
AE42
330
1F
100
AcDbEntity
  8
1
  6
CENTER
 48
2.0
100
AcDbLine
 10
12387.63142801839
 20
147.9104909307127
 30
0.0
 11
13211.02428516124
 21
147.9104909307127
 31
0.0
  0
LINE
  5
AE43
330
1F
100
AcDbEntity
  8
1
  6
CENTER
 48
2.0
100
AcDbLine
 10
12799.32785658981
 20
-263.7859376407162
 30
0.0
 11
12799.32785658981
 21
559.6069195021401
 31
0.0
  0
CIRCLE
  5
AE46
330
1F
100
AcDbEntity
  8
1
100
AcDbCircle
 10
12799.32785658981
 20
147.9104909307127
 30
0.0
 40
397.5
  0
LINE
  5
AE47
330
1F
100
AcDbEntity
  8
1
100
AcDbLine
 10
13448.5709020641
 20
482.9104909307126
 30
0.0
 11
13448.5709020641
 21
-187.0895090692871
 31
0.0
  0
LINE
  5
AE48
330
1F
100
AcDbEntity
  8
1
100
AcDbLine
 10
13500.57090206409
 20
543.4104909307121
 30
0.0
 11
13500.57090206411
 21
-247.5895090692874
 31
0.0
  0
LINE
  5
AE4A
330
1F
100
AcDbEntity
  8
1
  6
CENTER
100
AcDbLine
 10
13420.14594925963
 20
147.9104909307127
 30
0.0
 11
13565.14549369394
 21
147.9104909307127
 31
0.0
  0
LINE
  5
AE4B
330
1F
100
AcDbEntity
  8
1
  6
CENTER
100
AcDbLine
 10
13432.20443805697
 20
507.910490930712
 30
0.0
 11
13514.94740614686
 21
507.910490930712
 31
0.0
  0
LINE
  5
AE4C
330
1F
100
AcDbEntity
  8
1
  6
PHANTOM
100
AcDbLine
 10
13448.5709020641
 20
427.3104909307118
 30
0.0
 11
13574.57090206409
 21
427.3104909307118
 31
0.0
  0
LINE
  5
AE4D
330
1F
100
AcDbEntity
  8
1
  6
PHANTOM
100
AcDbLine
 10
13448.5709020641
 20
419.4104909307136
 30
0.0
 11
13574.57090206409
 21
419.4104909307126
 31
0.0
  0
LINE
  5
AE4E
330
1F
100
AcDbEntity
  8
1
  6
HIDDEN
100
AcDbLine
 10
13538.57090206411
 20
428.910490930712
 30
0.0
 11
13448.5709020641
 21
428.9104909307114
 31
0.0
  0
LINE
  5
AE4F
330
1F
100
AcDbEntity
  8
1
  6
CENTER
100
AcDbLine
 10
13436.85383519944
 20
-212.0895090692874
 30
0.0
 11
13511.16870667986
 21
-212.0895090692874
 31
0.0
  0
LINE
  5
AE50
330
1F
100
AcDbEntity
  8
1
  6
PHANTOM
100
AcDbLine
 10
13448.5709020641
 20
-131.4895090692877
 30
0.0
 11
13574.57090206409
 21
-131.4895090692876
 31
0.0
  0
LINE
  5
AE51
330
1F
100
AcDbEntity
  8
1
  6
PHANTOM
100
AcDbLine
 10
13448.5709020641
 20
-123.5895090692893
 30
0.0
 11
13574.57090206409
 21
-123.5895090692884
 31
0.0
  0
LINE
  5
AE52
330
1F
100
AcDbEntity
  8
1
  6
HIDDEN
100
AcDbLine
 10
13538.5709020641
 20
-133.0895090692873
 30
0.0
 11
13448.5709020641
 21
-133.0895090692875
 31
0.0
  0
CIRCLE
  5
AE54
330
1F
100
AcDbEntity
  8
1
100
AcDbCircle
 10
12743.01144917535
 20
503.4782935449651
 30
0.0
 40
19.5
  0
LINE
  5
AE55
330
1F
100
AcDbEntity
  8
1
  6
CENTER
100
AcDbLine
 10
12747.28211007094
 20
476.5144018467188
 30
0.0
 11
12738.74078827975
 21
530.4421852432128
 31
0.0
  0
LINE
  5
AE56
330
1F
100
AcDbEntity
  8
1
  6
HIDDEN
100
AcDbLine
 10
13500.57090206409
 20
488.4104909307125
 30
0.0
 11
13451.5709020641
 21
488.4104909307119
 31
0.0
  0
LINE
  5
AE58
330
1F
100
AcDbEntity
  8
1
  6
HIDDEN
100
AcDbLine
 10
13500.5709020641
 20
-231.5895090692874
 30
0.0
 11
13451.57090206411
 21
-231.5895090692876
 31
0.0
  0
LINE
  5
AE59
330
1F
100
AcDbEntity
  8
1
  6
HIDDEN
100
AcDbLine
 10
13500.57090206409
 20
527.4104909307119
 30
0.0
 11
13451.5709020641
 21
527.4104909307116
 31
0.0
  0
LINE
  5
AE5A
330
1F
100
AcDbEntity
  8
1
  6
HIDDEN
100
AcDbLine
 10
13500.5709020641
 20
-192.5895090692874
 30
0.0
 11
13451.57090206411
 21
-192.5895090692875
 31
0.0
  0
MTEXT
  5
AE5B
330
1F
100
AcDbEntity
  8
1
100
AcDbMText
 10
13320.30135420656
 20
-416.3044784081903
 30
0.0
 40
40.0
 41
160.415524151791
 71
     1
 72
     5
  1
SOH-A
 73
     1
 44
1.0
1001
ACAD
1000
MTEXTBEGIN
1070
    73
1070
     1
1070
    44
1040
1.0
1070
    74
1070
     0
1000
MTEXTEND
  0
LINE
  5
AFB7
330
1F
100
AcDbEntity
  8
1
100
AcDbLine
 10
13451.5709020641
 20
545.4104909307115
 30
0.0
 11
13498.57090206409
 21
545.4104909307122
 31
0.0
  0
LINE
  5
AFB8
330
1F
100
AcDbEntity
  8
1
100
AcDbLine
 10
13451.57090206411
 20
-249.5895090692874
 30
0.0
 11
13498.57090206411
 21
-249.5895090692874
 31
0.0
  0
CIRCLE
  5
B00B
330
1F
100
AcDbEntity
  8
1
  6
CENTER
 48
2.0
100
AcDbCircle
 10
12799.32785658981
 20
147.9104909307127
 30
0.0
 40
360.0
  0
CIRCLE
  5
B00D
330
1F
100
AcDbEntity
  8
1
100
AcDbCircle
 10
12635.89127668359
 20
468.6728396385341
 30
0.0
 40
19.5
  0
LINE
  5
B00E
330
1F
100
AcDbEntity
  8
1
  6
CENTER
100
AcDbLine
 10
12648.28521732648
 20
444.3483615281921
 30
0.0
 11
12623.4973360407
 21
492.9973177488791
 31
0.0
  0
CIRCLE
  5
B00F
330
1F
100
AcDbEntity
  8
1
100
AcDbCircle
 10
12544.76941536267
 20
402.4689321578835
 30
0.0
 40
19.5
  0
LINE
  5
B010
330
1F
100
AcDbEntity
  8
1
  6
CENTER
100
AcDbLine
 10
12564.07343048906
 20
383.1649170314895
 30
0.0
 11
12525.46540023627
 21
421.7729472842798
 31
0.0
  0
CIRCLE
  5
B011
330
1F
100
AcDbEntity
  8
1
100
AcDbCircle
 10
12478.565507882
 20
311.3470708369713
 30
0.0
 40
19.5
  0
LINE
  5
B012
330
1F
100
AcDbEntity
  8
1
  6
CENTER
100
AcDbLine
 10
12502.88998599235
 20
298.953130194077
 30
0.0
 11
12454.24102977166
 21
323.741011479864
 31
0.0
  0
CIRCLE
  5
B013
330
1F
100
AcDbEntity
  8
1
100
AcDbCircle
 10
12443.76005397556
 20
204.2268983452163
 30
0.0
 40
19.5
  0
LINE
  5
B014
330
1F
100
AcDbEntity
  8
1
  6
CENTER
100
AcDbLine
 10
12470.72394567381
 20
199.9562374496145
 30
0.0
 11
12416.79616227732
 21
208.4975592408209
 31
0.0
  0
CIRCLE
  5
B015
330
1F
100
AcDbEntity
  8
1
100
AcDbCircle
 10
12443.76005397556
 20
91.59408351625108
 30
0.0
 40
19.5
  0
LINE
  5
B016
330
1F
100
AcDbEntity
  8
1
  6
CENTER
100
AcDbLine
 10
12470.7239456738
 20
95.8647444118451
 30
0.0
 11
12416.79616227731
 21
87.32342262065685
 31
0.0
  0
CIRCLE
  5
B017
330
1F
100
AcDbEntity
  8
1
100
AcDbCircle
 10
12478.56550788199
 20
-15.52608897550362
 30
0.0
 40
19.5
  0
LINE
  5
B018
330
1F
100
AcDbEntity
  8
1
  6
CENTER
100
AcDbLine
 10
12502.88998599233
 20
-3.132148332619181
 30
0.0
 11
12454.24102977164
 21
-27.92002961839171
 31
0.0
  0
CIRCLE
  5
B019
330
1F
100
AcDbEntity
  8
1
100
AcDbCircle
 10
12544.76941536264
 20
-106.6479502964293
 30
0.0
 40
19.5
  0
LINE
  5
B01A
330
1F
100
AcDbEntity
  8
1
  6
CENTER
100
AcDbLine
 10
12564.07343048903
 20
-87.34393517003992
 30
0.0
 11
12525.46540023624
 21
-125.951965422817
 31
0.0
  0
CIRCLE
  5
B01B
330
1F
100
AcDbEntity
  8
1
100
AcDbCircle
 10
12635.89127668355
 20
-172.8518577770901
 30
0.0
 40
19.5
  0
LINE
  5
B01C
330
1F
100
AcDbEntity
  8
1
  6
CENTER
100
AcDbLine
 10
12648.28521732644
 20
-148.5273796667506
 30
0.0
 11
12623.49733604066
 21
-197.1763358874304
 31
0.0
  0
CIRCLE
  5
B01D
330
1F
100
AcDbEntity
  8
1
100
AcDbCircle
 10
12743.0114491753
 20
-207.6573116835338
 30
0.0
 40
19.5
  0
LINE
  5
B01E
330
1F
100
AcDbEntity
  8
1
  6
CENTER
100
AcDbLine
 10
12747.2821100709
 20
-180.693419985288
 30
0.0
 11
12738.7407882797
 21
-234.6212033817792
 31
0.0
  0
CIRCLE
  5
B01F
330
1F
100
AcDbEntity
  8
1
100
AcDbCircle
 10
12855.64426400427
 20
-207.6573116835397
 30
0.0
 40
19.5
  0
LINE
  5
B020
330
1F
100
AcDbEntity
  8
1
  6
CENTER
100
AcDbLine
 10
12851.37360310868
 20
-180.6934199852935
 30
0.0
 11
12859.91492489987
 21
-234.6212033817874
 31
0.0
  0
CIRCLE
  5
B021
330
1F
100
AcDbEntity
  8
1
100
AcDbCircle
 10
12962.76443649603
 20
-172.8518577771087
 30
0.0
 40
19.5
  0
LINE
  5
B022
330
1F
100
AcDbEntity
  8
1
  6
CENTER
100
AcDbLine
 10
12950.37049585314
 20
-148.5273796667661
 30
0.0
 11
12975.15837713891
 21
-197.1763358874523
 31
0.0
  0
CIRCLE
  5
B023
330
1F
100
AcDbEntity
  8
1
100
AcDbCircle
 10
13053.88629781695
 20
-106.6479502964585
 30
0.0
 40
19.5
  0
LINE
  5
B024
330
1F
100
AcDbEntity
  8
1
  6
CENTER
100
AcDbLine
 10
13034.58228269056
 20
-87.34393517006447
 30
0.0
 11
13073.19031294334
 21
-125.9519654228552
 31
0.0
  0
CIRCLE
  5
B025
330
1F
100
AcDbEntity
  8
1
100
AcDbCircle
 10
13120.09020529761
 20
-15.52608897554182
 30
0.0
 40
19.5
  0
LINE
  5
B026
330
1F
100
AcDbEntity
  8
1
  6
CENTER
100
AcDbLine
 10
13095.76572718727
 20
-3.132148332650101
 30
0.0
 11
13144.41468340795
 21
-27.92002961843718
 31
0.0
  0
CIRCLE
  5
B027
330
1F
100
AcDbEntity
  8
1
100
AcDbCircle
 10
13154.89565920406
 20
91.59408351620824
 30
0.0
 40
19.5
  0
LINE
  5
B028
330
1F
100
AcDbEntity
  8
1
  6
CENTER
100
AcDbLine
 10
13127.93176750581
 20
95.86474441181051
 30
0.0
 11
13181.8595509023
 21
87.32342262060774
 31
0.0
  0
CIRCLE
  5
B029
330
1F
100
AcDbEntity
  8
1
100
AcDbCircle
 10
13154.89565920406
 20
204.2268983451763
 30
0.0
 40
19.5
  0
LINE
  5
B02A
330
1F
100
AcDbEntity
  8
1
  6
CENTER
100
AcDbLine
 10
13127.93176750582
 20
199.9562374495816
 30
0.0
 11
13181.85955090231
 21
208.49755924077
 31
0.0
  0
CIRCLE
  5
B02B
330
1F
100
AcDbEntity
  8
1
100
AcDbCircle
 10
13120.09020529763
 20
311.3470708369309
 30
0.0
 40
19.5
  0
LINE
  5
B02C
330
1F
100
AcDbEntity
  8
1
  6
CENTER
100
AcDbLine
 10
13095.76572718729
 20
298.9531301940442
 30
0.0
 11
13144.41468340797
 21
323.7410114798167
 31
0.0
  0
CIRCLE
  5
B02D
330
1F
100
AcDbEntity
  8
1
100
AcDbCircle
 10
13053.88629781698
 20
402.4689321578562
 30
0.0
 40
19.5
  0
LINE
  5
B02E
330
1F
100
AcDbEntity
  8
1
  6
CENTER
100
AcDbLine
 10
13034.58228269058
 20
383.1649170314686
 30
0.0
 11
13073.19031294338
 21
421.7729472842457
 31
0.0
  0
CIRCLE
  5
B02F
330
1F
100
AcDbEntity
  8
1
100
AcDbCircle
 10
12962.76443649606
 20
468.672839638515
 30
0.0
 40
19.5
  0
LINE
  5
B030
330
1F
100
AcDbEntity
  8
1
  6
CENTER
100
AcDbLine
 10
12950.37049585317
 20
444.3483615281756
 30
0.0
 11
12975.15837713896
 21
492.9973177488546
 31
0.0
  0
CIRCLE
  5
B031
330
1F
100
AcDbEntity
  8
1
100
AcDbCircle
 10
12855.64426400431
 20
503.4782935449583
 30
0.0
 40
19.5
  0
LINE
  5
B032
330
1F
100
AcDbEntity
  8
1
  6
CENTER
100
AcDbLine
 10
12851.37360310871
 20
476.5144018467132
 30
0.0
 11
12859.91492489992
 21
530.4421852432047
 31
0.0
  0
CIRCLE
  5
B033
330
1F
100
AcDbEntity
  8
1
100
AcDbCircle
 10
12799.32785658981
 20
147.9104909307127
 30
0.0
 40
281.0
  0
LINE
  5
B116
330
1F
100
AcDbEntity
  8
1
  6
CENTER
 48
2.0
100
AcDbLine
 10
13748.2474388792
 20
147.9104909307127
 30
0.0
 11
14623.42601030777
 21
147.9104909307127
 31
0.0
  0
LINE
  5
B117
330
1F
100
AcDbEntity
  8
1
  6
CENTER
 48
2.0
100
AcDbLine
 10
14185.83672459348
 20
-289.6787947835734
 30
0.0
 11
14185.83672459348
 21
585.4997766449972
 31
0.0
  0
CIRCLE
  5
B11A
330
1F
100
AcDbEntity
  8
1
100
AcDbCircle
 10
14185.83672459348
 20
147.9104909307127
 30
0.0
 40
422.4999999999998
  0
LINE
  5
B11B
330
1F
100
AcDbEntity
  8
1
100
AcDbLine
 10
14856.90379359167
 20
507.9104909307126
 30
0.0
 11
14856.90379359168
 21
-212.0895090692872
 31
0.0
  0
LINE
  5
B11D
330
1F
100
AcDbEntity
  8
1
100
AcDbLine
 10
14910.90379359165
 20
568.4104909307119
 30
0.0
 11
14910.90379359168
 21
-272.5895090692874
 31
0.0
  0
LINE
  5
B11E
330
1F
100
AcDbEntity
  8
1
  6
CENTER
100
AcDbLine
 10
14837.88319491851
 20
147.9104909307127
 30
0.0
 11
14971.73768662868
 21
147.9104909307127
 31
0.0
  0
LINE
  5
B11F
330
1F
100
AcDbEntity
  8
1
  6
CENTER
100
AcDbLine
 10
14841.24529362474
 20
532.9104909307119
 30
0.0
 11
14923.28029767443
 21
532.9104909307119
 31
0.0
  0
LINE
  5
B120
330
1F
100
AcDbEntity
  8
1
  6
PHANTOM
100
AcDbLine
 10
14856.90379359168
 20
452.7104909307117
 30
0.0
 11
14982.90379359166
 21
452.7104909307117
 31
0.0
  0
LINE
  5
B121
330
1F
100
AcDbEntity
  8
1
  6
PHANTOM
100
AcDbLine
 10
14856.90379359168
 20
444.8104909307136
 30
0.0
 11
14982.90379359166
 21
444.8104909307128
 31
0.0
  0
LINE
  5
B122
330
1F
100
AcDbEntity
  8
1
  6
HIDDEN
100
AcDbLine
 10
14952.90379359167
 20
454.4104909307121
 30
0.0
 11
14856.90379359168
 21
454.4104909307113
 31
0.0
  0
LINE
  5
B123
330
1F
100
AcDbEntity
  8
1
  6
CENTER
100
AcDbLine
 10
14845.4547233413
 20
-237.0895090692874
 30
0.0
 11
14919.50159820743
 21
-237.0895090692874
 31
0.0
  0
LINE
  5
B124
330
1F
100
AcDbEntity
  8
1
  6
PHANTOM
100
AcDbLine
 10
14856.90379359168
 20
-156.8895090692875
 30
0.0
 11
14982.90379359166
 21
-156.8895090692875
 31
0.0
  0
LINE
  5
B125
330
1F
100
AcDbEntity
  8
1
  6
PHANTOM
100
AcDbLine
 10
14856.90379359168
 20
-148.9895090692893
 30
0.0
 11
14982.90379359166
 21
-148.9895090692884
 31
0.0
  0
LINE
  5
B126
330
1F
100
AcDbEntity
  8
1
  6
HIDDEN
100
AcDbLine
 10
14952.90379359167
 20
-158.5895090692873
 30
0.0
 11
14856.90379359168
 21
-158.5895090692875
 31
0.0
  0
CIRCLE
  5
B128
330
1F
100
AcDbEntity
  8
1
100
AcDbCircle
 10
14135.58414058879
 20
529.6167625596329
 30
0.0
 40
19.5
  0
LINE
  5
B129
330
1F
100
AcDbEntity
  8
1
  6
CENTER
100
AcDbLine
 10
14139.14750563639
 20
502.5503178441288
 30
0.0
 11
14132.02077554118
 21
556.6832072751378
 31
0.0
  0
LINE
  5
B12A
330
1F
100
AcDbEntity
  8
1
  6
HIDDEN
100
AcDbLine
 10
14910.90379359166
 20
513.4104909307125
 30
0.0
 11
14859.90379359167
 21
513.4104909307119
 31
0.0
  0
LINE
  5
B12C
330
1F
100
AcDbEntity
  8
1
  6
HIDDEN
100
AcDbLine
 10
14910.90379359167
 20
-256.5895090692874
 30
0.0
 11
14859.90379359168
 21
-256.5895090692877
 31
0.0
  0
LINE
  5
B12D
330
1F
100
AcDbEntity
  8
1
  6
HIDDEN
100
AcDbLine
 10
14910.90379359166
 20
552.4104909307119
 30
0.0
 11
14859.90379359167
 21
552.4104909307115
 31
0.0
  0
LINE
  5
B12E
330
1F
100
AcDbEntity
  8
1
  6
HIDDEN
100
AcDbLine
 10
14910.90379359167
 20
-217.5895090692874
 30
0.0
 11
14859.90379359168
 21
-217.5895090692875
 31
0.0
  0
CIRCLE
  5
B295
330
1F
100
AcDbEntity
  8
1
  6
CENTER
 48
2.0
100
AcDbCircle
 10
14185.83672459348
 20
147.9104909307127
 30
0.0
 40
385.0
  0
CIRCLE
  5
B2C3
330
1F
100
AcDbEntity
  8
1
100
AcDbCircle
 10
14038.50360313295
 20
503.6041109475672
 30
0.0
 40
19.5
  0
LINE
  5
B2C4
330
1F
100
AcDbEntity
  8
1
  6
CENTER
100
AcDbLine
 10
14048.95086083651
 20
478.3821997100083
 30
0.0
 11
14028.05634542938
 21
528.8260221851269
 31
0.0
  0
CIRCLE
  5
B2C5
330
1F
100
AcDbEntity
  8
1
100
AcDbCircle
 10
13951.46357442514
 20
453.3515269428517
 30
0.0
 40
19.5
  0
LINE
  5
B2C6
330
1F
100
AcDbEntity
  8
1
  6
CENTER
100
AcDbLine
 10
13968.08276143708
 20
431.6929807529003
 30
0.0
 11
13934.84438741321
 21
475.0100731328057
 31
0.0
  0
CIRCLE
  5
B2C7
330
1F
100
AcDbEntity
  8
1
100
AcDbCircle
 10
13880.39568858137
 20
382.2836410990904
 30
0.0
 40
19.5
  0
LINE
  5
B2C8
330
1F
100
AcDbEntity
  8
1
  6
CENTER
100
AcDbLine
 10
13902.05423477132
 20
365.6644540871476
 30
0.0
 11
13858.73714239142
 21
398.9028281110295
 31
0.0
  0
CIRCLE
  5
B2C9
330
1F
100
AcDbEntity
  8
1
100
AcDbCircle
 10
13830.14310457665
 20
295.2436123912976
 30
0.0
 40
19.5
  0
LINE
  5
B2CA
330
1F
100
AcDbEntity
  8
1
  6
CENTER
100
AcDbLine
 10
13855.3650158142
 20
284.7963546877236
 30
0.0
 11
13804.92119333909
 21
305.6908700948662
 31
0.0
  0
CIRCLE
  5
B2CB
330
1F
100
AcDbEntity
  8
1
100
AcDbCircle
 10
13804.13045296457
 20
198.1630749354567
 30
0.0
 40
19.5
  0
LINE
  5
B2CC
330
1F
100
AcDbEntity
  8
1
  6
CENTER
100
AcDbLine
 10
13831.19689768007
 20
194.5997098878433
 30
0.0
 11
13777.06400824906
 21
201.7264399830674
 31
0.0
  0
CIRCLE
  5
B2CD
330
1F
100
AcDbEntity
  8
1
100
AcDbCircle
 10
13804.13045296456
 20
97.65790692601669
 30
0.0
 40
19.5
  0
LINE
  5
B2CE
330
1F
100
AcDbEntity
  8
1
  6
CENTER
100
AcDbLine
 10
13831.19689768006
 20
101.2212719736198
 30
0.0
 11
13777.06400824906
 21
94.09454187841403
 31
0.0
  0
CIRCLE
  5
B2CF
330
1F
100
AcDbEntity
  8
1
100
AcDbCircle
 10
13830.14310457663
 20
0.5773694701742898
 30
0.0
 40
19.5
  0
LINE
  5
B2D0
330
1F
100
AcDbEntity
  8
1
  6
CENTER
100
AcDbLine
 10
13855.36501581419
 20
11.02462717373782
 30
0.0
 11
13804.92119333907
 21
-9.869888233388335
 31
0.0
  0
CIRCLE
  5
B2D1
330
1F
100
AcDbEntity
  8
1
100
AcDbCircle
 10
13880.39568858134
 20
-86.46265923762255
 30
0.0
 40
19.5
  0
LINE
  5
B2D2
330
1F
100
AcDbEntity
  8
1
  6
CENTER
100
AcDbLine
 10
13902.05423477129
 20
-69.8434722256916
 30
0.0
 11
13858.73714239139
 21
-103.081846249559
 31
0.0
  0
CIRCLE
  5
B2D3
330
1F
100
AcDbEntity
  8
1
100
AcDbCircle
 10
13951.4635744251
 20
-157.5305450813966
 30
0.0
 40
19.5
  0
LINE
  5
B2D4
330
1F
100
AcDbEntity
  8
1
  6
CENTER
100
AcDbLine
 10
13968.08276143705
 20
-135.8719988914508
 30
0.0
 11
13934.84438741316
 21
-179.189091271346
 31
0.0
  0
CIRCLE
  5
B2D5
330
1F
100
AcDbEntity
  8
1
100
AcDbCircle
 10
14038.5036031329
 20
-207.783129086125
 30
0.0
 40
19.5
  0
LINE
  5
B2D6
330
1F
100
AcDbEntity
  8
1
  6
CENTER
100
AcDbLine
 10
14048.95086083647
 20
-182.5612178485689
 30
0.0
 11
14028.05634542933
 21
-233.0050403236801
 31
0.0
  0
CIRCLE
  5
B2D7
330
1F
100
AcDbEntity
  8
1
100
AcDbCircle
 10
14135.58414058874
 20
-233.7957806982008
 30
0.0
 40
19.5
  0
LINE
  5
B2D8
330
1F
100
AcDbEntity
  8
1
  6
CENTER
100
AcDbLine
 10
14139.14750563635
 20
-206.729335982699
 30
0.0
 11
14132.02077554113
 21
-260.8622254137058
 31
0.0
  0
CIRCLE
  5
B2D9
330
1F
100
AcDbEntity
  8
1
100
AcDbCircle
 10
14236.08930859818
 20
-233.7957806982074
 30
0.0
 40
19.5
  0
LINE
  5
B2DA
330
1F
100
AcDbEntity
  8
1
  6
CENTER
100
AcDbLine
 10
14232.52594355058
 20
-206.7293359827035
 30
0.0
 11
14239.65267364578
 21
-260.8622254137126
 31
0.0
  0
CIRCLE
  5
B2DB
330
1F
100
AcDbEntity
  8
1
100
AcDbCircle
 10
14333.16984605402
 20
-207.7831290861404
 30
0.0
 40
19.5
  0
LINE
  5
B2DC
330
1F
100
AcDbEntity
  8
1
  6
CENTER
100
AcDbLine
 10
14322.72258835046
 20
-182.5612178485826
 30
0.0
 11
14343.61710375758
 21
-233.0050403237009
 31
0.0
  0
CIRCLE
  5
B2DD
330
1F
100
AcDbEntity
  8
1
100
AcDbCircle
 10
14420.20987476182
 20
-157.5305450814257
 30
0.0
 40
19.5
  0
LINE
  5
B2DE
330
1F
100
AcDbEntity
  8
1
  6
CENTER
100
AcDbLine
 10
14403.59068774989
 20
-135.8719988914754
 30
0.0
 11
14436.82906177375
 21
-179.1890912713797
 31
0.0
  0
CIRCLE
  5
B2DF
330
1F
100
AcDbEntity
  8
1
100
AcDbCircle
 10
14491.27776060559
 20
-86.4626592376635
 30
0.0
 40
19.5
  0
LINE
  5
B2E0
330
1F
100
AcDbEntity
  8
1
  6
CENTER
100
AcDbLine
 10
14469.61921441564
 20
-69.84347222572433
 30
0.0
 11
14512.93630679554
 21
-103.0818462496063
 31
0.0
  0
CIRCLE
  5
B2E1
330
1F
100
AcDbEntity
  8
1
100
AcDbCircle
 10
14541.53034461032
 20
0.5773694701319984
 30
0.0
 40
19.5
  0
LINE
  5
B2E2
330
1F
100
AcDbEntity
  8
1
  6
CENTER
100
AcDbLine
 10
14516.30843337277
 20
11.02462717370326
 30
0.0
 11
14566.75225584788
 21
-9.869888233439267
 31
0.0
  0
CIRCLE
  5
B2E3
330
1F
100
AcDbEntity
  8
1
100
AcDbCircle
 10
14567.54299622239
 20
97.6579069259715
 30
0.0
 40
19.5
  0
LINE
  5
B2E4
330
1F
100
AcDbEntity
  8
1
  6
CENTER
100
AcDbLine
 10
14540.47655150689
 20
101.2212719735835
 30
0.0
 11
14594.6094409379
 21
94.09454187835946
 31
0.0
  0
CIRCLE
  5
B2E5
330
1F
100
AcDbEntity
  8
1
100
AcDbCircle
 10
14567.5429962224
 20
198.163074935409
 30
0.0
 40
19.5
  0
LINE
  5
B2E6
330
1F
100
AcDbEntity
  8
1
  6
CENTER
100
AcDbLine
 10
14540.4765515069
 20
194.599709887807
 30
0.0
 11
14594.60944093791
 21
201.7264399830128
 31
0.0
  0
CIRCLE
  5
B2E7
330
1F
100
AcDbEntity
  8
1
100
AcDbCircle
 10
14541.53034461034
 20
295.2436123912507
 30
0.0
 40
19.5
  0
LINE
  5
B2E8
330
1F
100
AcDbEntity
  8
1
  6
CENTER
100
AcDbLine
 10
14516.30843337278
 20
284.796354687689
 30
0.0
 11
14566.7522558479
 21
305.6908700948152
 31
0.0
  0
CIRCLE
  5
B2E9
330
1F
100
AcDbEntity
  8
1
100
AcDbCircle
 10
14491.27776060562
 20
382.2836410990531
 30
0.0
 40
19.5
  0
LINE
  5
B2EA
330
1F
100
AcDbEntity
  8
1
  6
CENTER
100
AcDbLine
 10
14469.61921441567
 20
365.6644540871184
 30
0.0
 11
14512.93630679558
 21
398.9028281109877
 31
0.0
  0
CIRCLE
  5
B2EB
330
1F
100
AcDbEntity
  8
1
100
AcDbCircle
 10
14420.20987476186
 20
453.3515269428271
 30
0.0
 40
19.5
  0
LINE
  5
B2EC
330
1F
100
AcDbEntity
  8
1
  6
CENTER
100
AcDbLine
 10
14403.59068774992
 20
431.6929807528794
 30
0.0
 11
14436.8290617738
 21
475.0100731327746
 31
0.0
  0
CIRCLE
  5
B2ED
330
1F
100
AcDbEntity
  8
1
100
AcDbCircle
 10
14333.16984605407
 20
503.6041109475482
 30
0.0
 40
19.5
  0
LINE
  5
B2EE
330
1F
100
AcDbEntity
  8
1
  6
CENTER
100
AcDbLine
 10
14322.72258835049
 20
478.3821997099931
 30
0.0
 11
14343.61710375763
 21
528.8260221851041
 31
0.0
  0
CIRCLE
  5
B2EF
330
1F
100
AcDbEntity
  8
1
100
AcDbCircle
 10
14236.08930859822
 20
529.6167625596276
 30
0.0
 40
19.5
  0
LINE
  5
B2F0
330
1F
100
AcDbEntity
  8
1
  6
CENTER
100
AcDbLine
 10
14232.52594355061
 20
502.550317844124
 30
0.0
 11
14239.65267364584
 21
556.6832072751308
 31
0.0
  0
CIRCLE
  5
B2F2
330
1F
100
AcDbEntity
  8
1
100
AcDbCircle
 10
14185.83672459348
 20
147.9104909307127
 30
0.0
 40
306.5
  0
LINE
  5
B30E
330
1F
100
AcDbEntity
  8
1
100
AcDbLine
 10
14859.90379359168
 20
570.4104909307115
 30
0.0
 11
14908.90379359165
 21
570.4104909307119
 31
0.0
  0
LINE
  5
B30F
330
1F
100
AcDbEntity
  8
1
100
AcDbLine
 10
14859.90379359168
 20
-274.5895090692876
 30
0.0
 11
14908.90379359168
 21
-274.5895090692874
 31
0.0
  0
MTEXT
  5
B38D
330
1F
100
AcDbEntity
  8
1
100
AcDbMText
 10
14827.5210240815
 20
-359.85848966709
 30
0.0
 40
40.0
 41
160.415524151791
 71
     1
 72
     5
  1
SOH-A
 73
     1
 44
1.0
1001
ACAD
1000
MTEXTBEGIN
1070
    73
1070
     1
1070
    44
1040
1.0
1070
    74
1070
     0
1000
MTEXTEND
  0
LINE
  5
B521
330
1F
100
AcDbEntity
  8
1
100
AcDbLine
 10
12578.18571223989
 20
2348.617321746549
 30
0.0
 11
12578.1857122399
 21
2378.617321746549
 31
0.0
  0
LINE
  5
B524
330
1F
100
AcDbEntity
  8
skeleton
100
AcDbLine
 10
12575.52811629067
 20
2379.060254404754
 30
0.0
 11
12578.1857122399
 21
2378.617321746549
 31
0.0
  0
ARC
  5
B525
330
1F
100
AcDbEntity
  8
skeleton
100
AcDbCircle
 10
12576.1857122399
 20
2383.005830100081
 30
0.0
 40
4.0
100
AcDbArc
 50
180.0
 51
260.5376777919659
  0
LINE
  5
B526
330
1F
100
AcDbEntity
  8
skeleton
100
AcDbLine
 10
12575.52811629067
 20
2348.174389088346
 30
0.0
 11
12578.1857122399
 21
2348.61732174655
 31
0.0
  0
ARC
  5
B527
330
1F
100
AcDbEntity
  8
skeleton
100
AcDbCircle
 10
12576.1857122399
 20
2344.228813393018
 30
0.0
 40
4.0
100
AcDbArc
 50
99.46232220803423
 51
180.0
  0
LINE
  5
B5BA
330
1F
100
AcDbEntity
  8
1
100
AcDbLine
 10
13172.19468368066
 20
2380.617321746548
 30
0.0
 11
13172.19468368066
 21
2346.617321746547
 31
0.0
  0
LINE
  5
B5C6
330
1F
100
AcDbEntity
  8
skeleton
100
AcDbLine
 10
13169.53708773143
 20
2381.060254404751
 30
0.0
 11
13172.19468368066
 21
2380.617321746548
 31
0.0
  0
ARC
  5
B5C7
330
1F
100
AcDbEntity
  8
skeleton
100
AcDbCircle
 10
13170.19468368066
 20
2385.00583010008
 30
0.0
 40
4.0
100
AcDbArc
 50
180.0
 51
260.5376777919679
  0
LINE
  5
B5C8
330
1F
100
AcDbEntity
  8
skeleton
100
AcDbLine
 10
13169.53708773143
 20
2346.174389088344
 30
0.0
 11
13172.19468368066
 21
2346.617321746547
 31
0.0
  0
ARC
  5
B5C9
330
1F
100
AcDbEntity
  8
skeleton
100
AcDbCircle
 10
13170.19468368066
 20
2342.228813393015
 30
0.0
 40
4.0
100
AcDbArc
 50
99.46232220803205
 51
180.0
  0
LINE
  5
B646
330
1F
100
AcDbEntity
  8
skeleton
100
AcDbLine
 10
13811.17624737089
 20
2384.060254404752
 30
0.0
 11
13813.83384332011
 21
2383.617321746548
 31
0.0
  0
ARC
  5
B652
330
1F
100
AcDbEntity
  8
skeleton
100
AcDbCircle
 10
13811.83384332011
 20
2388.00583010008
 30
0.0
 40
4.0
100
AcDbArc
 50
180.0
 51
260.5376777919659
  0
LINE
  5
B70C
330
1F
100
AcDbEntity
  8
1
100
AcDbLine
 10
14447.1868932918
 20
2387.617321746548
 30
0.0
 11
14447.1868932918
 21
2339.617321746548
 31
0.0
  0
LINE
  5
B70D
330
1F
100
AcDbEntity
  8
skeleton
100
AcDbLine
 10
14447.1868932918
 20
2387.617321746548
 30
0.0
 11
14442.69075435344
 21
2388.179339113841
 31
0.0
  0
ARC
  5
B717
330
1F
100
AcDbEntity
  8
skeleton
100
AcDbCircle
 10
14443.1868932918
 20
2392.148450620696
 30
0.0
 40
4.0
100
AcDbArc
 50
180.0
 51
262.8749836510942
  0
LINE
  5
B718
330
1F
100
AcDbEntity
  8
skeleton
100
AcDbLine
 10
14447.1868932918
 20
2339.617321746548
 30
0.0
 11
14442.69075435344
 21
2339.055304379253
 31
0.0
  0
ARC
  5
B719
330
1F
100
AcDbEntity
  8
skeleton
100
AcDbCircle
 10
14443.1868932918
 20
2335.086192872399
 30
0.0
 40
4.0
100
AcDbArc
 50
97.12501634890585
 51
180.0
  0
LINE
  5
B735
330
1F
100
AcDbEntity
  8
1
100
AcDbLine
 10
14424.1868932918
 20
2426.117321746548
 30
0.0
 11
14424.1868932918
 21
2301.117321746548
 31
0.0
  0
ARC
  5
B738
330
1F
100
AcDbEntity
  8
skeleton
100
AcDbCircle
 10
14423.1868932918
 20
2398.117321746549
 30
0.0
 40
1.0
100
AcDbArc
 50
270.0
 51
0.0
  0
ARC
  5
B739
330
1F
100
AcDbEntity
  8
skeleton
100
AcDbCircle
 10
14423.1868932918
 20
2329.117321746546
 30
0.0
 40
1.0
100
AcDbArc
 50
0.0
 51
90.00000000000005
  0
CIRCLE
  5
B756
330
1F
100
AcDbEntity
  8
skeleton
100
AcDbCircle
 10
14320.39510656993
 20
2363.617321746548
 30
0.0
 40
33.50000000000136
  0
LINE
  5
B757
330
1F
100
AcDbEntity
  8
1
100
AcDbLine
 10
12559.18571223989
 20
2318.61732174655
 30
0.0
 11
12559.1857122399
 21
2408.617321746547
 31
0.0
  0
ARC
  5
B75B
330
1F
100
AcDbEntity
  8
skeleton
100
AcDbCircle
 10
12558.18571223989
 20
2387.617321746549
 30
0.0
 40
1.0
100
AcDbArc
 50
270.0
 51
0.0
  0
ARC
  5
B75C
330
1F
100
AcDbEntity
  8
skeleton
100
AcDbCircle
 10
12558.18571223989
 20
2339.61732174655
 30
0.0
 40
1.0
100
AcDbArc
 50
0.0
 51
90.00000000000005
  0
CIRCLE
  5
B75F
330
1F
100
AcDbEntity
  8
1
100
AcDbCircle
 10
12478.7927079297
 20
2363.617321746548
 30
0.0
 40
23.00000000000137
  0
LINE
  5
B760
330
1F
100
AcDbEntity
  8
1
100
AcDbLine
 10
13153.19468368066
 20
2411.117321746548
 30
0.0
 11
13153.19468368066
 21
2316.117321746547
 31
0.0
  0
CIRCLE
  5
B763
330
1F
100
AcDbEntity
  8
1
100
AcDbCircle
 10
13067.41217612852
 20
2363.617321746548
 30
0.0
 40
25.5
  0
ARC
  5
B764
330
1F
100
AcDbEntity
  8
1
100
AcDbCircle
 10
13152.19468368066
 20
2390.117321746547
 30
0.0
 40
1.0
100
AcDbArc
 50
270.0
 51
0.0
  0
ARC
  5
B765
330
1F
100
AcDbEntity
  8
1
100
AcDbCircle
 10
13152.19468368066
 20
2337.117321746548
 30
0.0
 40
1.0
100
AcDbArc
 50
0.0
 51
90.00000000000005
  0
LINE
  5
B767
330
1F
100
AcDbEntity
  8
1
100
AcDbLine
 10
13792.83384332011
 20
2413.617321746547
 30
0.0
 11
13792.83384332011
 21
2313.617321746549
 31
0.0
  0
CIRCLE
  5
B769
330
1F
100
AcDbEntity
  8
1
100
AcDbCircle
 10
13678.434564497
 20
2363.617321746548
 30
0.0
 40
28.0
  0
ARC
  5
B76A
330
1F
100
AcDbEntity
  8
1
100
AcDbCircle
 10
13791.83384332011
 20
2392.617321746548
 30
0.0
 40
1.0
100
AcDbArc
 50
270.0
 51
0.0
  0
ARC
  5
B76B
330
1F
100
AcDbEntity
  8
1
100
AcDbCircle
 10
13791.83384332011
 20
2334.617321746548
 30
0.0
 40
1.0
100
AcDbArc
 50
0.0
 51
90.00000000000005
  0
LINE
  5
B7D4
330
1F
100
AcDbEntity
  8
1
100
AcDbLine
 10
15103.59929565238
 20
2431.117321746548
 30
0.0
 11
15103.59929565238
 21
2296.117321746547
 31
0.0
  0
CIRCLE
  5
B7D7
330
1F
100
AcDbEntity
  8
1
100
AcDbCircle
 10
14990.11009510308
 20
2363.617321746548
 30
0.0
 40
38.0
  0
ARC
  5
B7D8
330
1F
100
AcDbEntity
  8
1
100
AcDbCircle
 10
15101.59929565238
 20
2403.617321746547
 30
0.0
 40
2.0
100
AcDbArc
 50
270.0
 51
0.0
  0
ARC
  5
B7D9
330
1F
100
AcDbEntity
  8
1
100
AcDbCircle
 10
15101.59929565238
 20
2323.617321746548
 30
0.0
 40
2.0
100
AcDbArc
 50
0.0
 51
90.00000000000005
  0
LINE
  5
B80B
330
1F
100
AcDbEntity
  8
1
100
AcDbLine
 10
15127.59929565238
 20
2391.617321746548
 30
0.0
 11
15127.59929565238
 21
2335.617321746547
 31
0.0
  0
LINE
  5
B80E
330
1F
100
AcDbEntity
  8
1
100
AcDbLine
 10
15123.38661752721
 20
2392.670491277844
 30
0.0
 11
15127.59929565238
 21
2391.617321746548
 31
0.0
  0
ARC
  5
B80F
330
1F
100
AcDbEntity
  8
1
100
AcDbCircle
 10
15124.59929565239
 20
2397.521203778568
 30
0.0
 40
5.0
100
AcDbArc
 50
180.0
 51
255.9637565320584
  0
LINE
  5
B810
330
1F
100
AcDbEntity
  8
1
100
AcDbLine
 10
15123.38661752721
 20
2334.564152215252
 30
0.0
 11
15127.59929565238
 21
2335.617321746548
 31
0.0
  0
ARC
  5
B811
330
1F
100
AcDbEntity
  8
1
100
AcDbCircle
 10
15124.59929565239
 20
2329.713439714527
 30
0.0
 40
5.0
100
AcDbArc
 50
104.0362434679416
 51
180.0
  0
LINE
  5
B899
330
1F
100
AcDbEntity
  8
1
100
AcDbLine
 10
15812.03540485587
 20
2433.617321746547
 30
0.0
 11
15812.03540485587
 21
2293.617321746548
 31
0.0
  0
CIRCLE
  5
B89D
330
1F
100
AcDbEntity
  8
1
100
AcDbCircle
 10
15688.78476345938
 20
2363.617321746548
 30
0.0
 40
40.49999999999999
  0
ARC
  5
B89E
330
1F
100
AcDbEntity
  8
1
100
AcDbCircle
 10
15810.03540485587
 20
2406.117321746548
 30
0.0
 40
2.0
100
AcDbArc
 50
270.0
 51
0.0
  0
ARC
  5
B89F
330
1F
100
AcDbEntity
  8
1
100
AcDbCircle
 10
15810.03540485587
 20
2321.117321746548
 30
0.0
 40
2.0
100
AcDbArc
 50
0.0
 51
90.00000000000005
  0
LINE
  5
B8AC
330
1F
100
AcDbEntity
  8
1
100
AcDbLine
 10
15831.82272673069
 20
2395.670491277844
 30
0.0
 11
15836.03540485587
 21
2394.617321746547
 31
0.0
  0
ARC
  5
B8AD
330
1F
100
AcDbEntity
  8
1
100
AcDbCircle
 10
15833.03540485587
 20
2400.52120377857
 30
0.0
 40
5.0
100
AcDbArc
 50
180.0
 51
255.9637565320622
  0
LINE
  5
B958
330
1F
100
AcDbEntity
  8
1
100
AcDbLine
 10
16547.04282027691
 20
2401.617321746547
 30
0.0
 11
16547.04282027691
 21
2325.617321746548
 31
0.0
  0
LINE
  5
B964
330
1F
100
AcDbEntity
  8
1
100
AcDbLine
 10
16542.83014215173
 20
2402.670491277842
 30
0.0
 11
16547.04282027691
 21
2401.617321746547
 31
0.0
  0
ARC
  5
B965
330
1F
100
AcDbEntity
  8
1
100
AcDbCircle
 10
16544.04282027691
 20
2407.521203778569
 30
0.0
 40
5.0
100
AcDbArc
 50
180.0
 51
255.9637565320622
  0
LINE
  5
B966
330
1F
100
AcDbEntity
  8
1
100
AcDbLine
 10
16542.83014215173
 20
2324.564152215253
 30
0.0
 11
16547.04282027691
 21
2325.617321746548
 31
0.0
  0
ARC
  5
B967
330
1F
100
AcDbEntity
  8
1
100
AcDbCircle
 10
16544.04282027691
 20
2319.713439714526
 30
0.0
 40
5.0
100
AcDbArc
 50
104.0362434679378
 51
180.0
  0
LINE
  5
B96A
330
1F
100
AcDbEntity
  8
1
100
AcDbLine
 10
16523.04282027691
 20
2441.117321746548
 30
0.0
 11
16523.04282027691
 21
2286.117321746548
 31
0.0
  0
ARC
  5
B96B
330
1F
100
AcDbEntity
  8
1
100
AcDbCircle
 10
16521.04282027691
 20
2413.617321746547
 30
0.0
 40
2.0
100
AcDbArc
 50
270.0
 51
0.0
  0
ARC
  5
B96C
330
1F
100
AcDbEntity
  8
1
100
AcDbCircle
 10
16521.04282027691
 20
2313.617321746548
 30
0.0
 40
2.0
100
AcDbArc
 50
0.0
 51
90.00000000000005
  0
CIRCLE
  5
B96E
330
1F
100
AcDbEntity
  8
1
100
AcDbCircle
 10
16369.32724312506
 20
2363.617321746547
 30
0.0
 40
48.00000000000091
  0
LINE
  5
BAA3
330
1F
100
AcDbEntity
  8
1
100
AcDbLine
 10
17254.59681070379
 20
2421.617321746548
 30
0.0
 11
17254.59681070379
 21
2305.617321746547
 31
0.0
  0
ARC
  5
BAA5
330
1F
100
AcDbEntity
  8
1
100
AcDbCircle
 10
17254.59681070379
 20
2423.617321746548
 30
0.0
 40
2.0
100
AcDbArc
 50
270.0
 51
0.0
  0
ARC
  5
BAA6
330
1F
100
AcDbEntity
  8
1
100
AcDbCircle
 10
17254.59681070379
 20
2303.617321746547
 30
0.0
 40
2.0
100
AcDbArc
 50
0.0
 51
90.00000000000005
  0
CIRCLE
  5
BAA8
330
1F
100
AcDbEntity
  8
1
100
AcDbCircle
 10
17094.50393707959
 20
2363.617321746548
 30
0.0
 40
58.00000000000046
  0
LINE
  5
BAB4
330
1F
100
AcDbEntity
  8
1
100
AcDbLine
 10
17284.59681070379
 20
2413.617321746548
 30
0.0
 11
17284.59681070378
 21
2313.617321746548
 31
0.0
  0
LINE
  5
BAC7
330
1F
100
AcDbEntity
  8
1
100
AcDbLine
 10
17278.61623002809
 20
2414.813437881685
 30
0.0
 11
17284.59681070379
 21
2413.617321746548
 31
0.0
  0
ARC
  5
BAC8
330
1F
100
AcDbEntity
  8
1
100
AcDbCircle
 10
17279.59681070379
 20
2419.716341260139
 30
0.0
 40
5.0
100
AcDbArc
 50
180.0
 51
258.6900675259644
  0
LINE
  5
BAC9
330
1F
100
AcDbEntity
  8
1
100
AcDbLine
 10
17278.61623002809
 20
2312.421205611411
 30
0.0
 11
17284.59681070379
 21
2313.617321746548
 31
0.0
  0
ARC
  5
BACA
330
1F
100
AcDbEntity
  8
1
100
AcDbCircle
 10
17279.59681070379
 20
2307.518302232956
 30
0.0
 40
5.0
100
AcDbArc
 50
101.3099324740355
 51
180.0
  0
LINE
  5
BB33
330
1F
100
AcDbEntity
  8
1
100
AcDbLine
 10
18082.07202643633
 20
2463.617321746548
 30
0.0
 11
18082.07202643633
 21
2263.617321746546
 31
0.0
  0
ARC
  5
BB4E
330
1F
100
AcDbEntity
  8
1
100
AcDbCircle
 10
18080.07202643634
 20
2431.617321746548
 30
0.0
 40
2.0
100
AcDbArc
 50
270.0
 51
0.0
  0
ARC
  5
BB4F
330
1F
100
AcDbEntity
  8
1
100
AcDbCircle
 10
18080.07202643634
 20
2295.617321746548
 30
0.0
 40
2.0
100
AcDbArc
 50
0.0
 51
90.00000000000005
  0
LINE
  5
BB6B
330
1F
100
AcDbEntity
  8
1
100
AcDbLine
 10
18114.07202643634
 20
2420.117321746548
 30
0.0
 11
18114.07202643634
 21
2307.117321746547
 31
0.0
  0
LINE
  5
BB77
330
1F
100
AcDbEntity
  8
1
100
AcDbLine
 10
18107.0856325125
 20
2421.281720733853
 30
0.0
 11
18114.07202643634
 21
2420.117321746548
 31
0.0
  0
ARC
  5
BB78
330
1F
100
AcDbEntity
  8
1
100
AcDbCircle
 10
18108.07202643633
 20
2427.200084276846
 30
0.0
 40
6.0
100
AcDbArc
 50
180.0
 51
260.5376777919837
  0
LINE
  5
BB79
330
1F
100
AcDbEntity
  8
1
100
AcDbLine
 10
18107.0856325125
 20
2305.952922759242
 30
0.0
 11
18114.07202643634
 21
2307.117321746547
 31
0.0
  0
ARC
  5
BB7A
330
1F
100
AcDbEntity
  8
1
100
AcDbCircle
 10
18108.07202643633
 20
2300.034559216249
 30
0.0
 40
6.0
100
AcDbArc
 50
99.46232220801633
 51
180.0
  0
LINE
  5
BC30
330
1F
100
AcDbEntity
  8
1
100
AcDbLine
 10
12733.11205645783
 20
2043.321890976125
 30
0.0
 11
12733.11205645783
 21
1833.321890976122
 31
0.0
  0
ARC
  5
BC57
330
1F
100
AcDbEntity
  8
1
100
AcDbCircle
 10
12731.11205645783
 20
2012.821890976124
 30
0.0
 40
2.0
100
AcDbArc
 50
270.0
 51
0.0
  0
ARC
  5
BC6A
330
1F
100
AcDbEntity
  8
1
100
AcDbCircle
 10
12731.11205645783
 20
1863.821890976123
 30
0.0
 40
2.0
100
AcDbArc
 50
0.0
 51
90.00000000000005
  0
LINE
  5
BC7D
330
1F
100
AcDbEntity
  8
1
100
AcDbLine
 10
12767.11205645783
 20
2001.321890976124
 30
0.0
 11
12767.11205645783
 21
1875.321890976124
 31
0.0
  0
LINE
  5
BC8A
330
1F
100
AcDbEntity
  8
1
100
AcDbLine
 10
12760.12566253399
 20
2002.486289963429
 30
0.0
 11
12767.11205645783
 21
2001.321890976123
 31
0.0
  0
ARC
  5
BC8B
330
1F
100
AcDbEntity
  8
1
100
AcDbCircle
 10
12761.11205645783
 20
2008.404653506422
 30
0.0
 40
6.0
100
AcDbArc
 50
180.0
 51
260.5376777919665
  0
LINE
  5
BC8C
330
1F
100
AcDbEntity
  8
1
100
AcDbLine
 10
12760.12566253399
 20
1874.157491988818
 30
0.0
 11
12767.11205645783
 21
1875.321890976124
 31
0.0
  0
ARC
  5
BC8D
330
1F
100
AcDbEntity
  8
1
100
AcDbCircle
 10
12761.11205645783
 20
1868.239128445825
 30
0.0
 40
6.0
100
AcDbArc
 50
99.46232220803349
 51
180.0
  0
LINE
  5
BCF6
330
1F
100
AcDbEntity
  8
1
100
AcDbLine
 10
13458.71670296304
 20
2050.821890976123
 30
0.0
 11
13458.71670296303
 21
1825.821890976123
 31
0.0
  0
ARC
  5
BCF8
330
1F
100
AcDbEntity
  8
1
100
AcDbCircle
 10
13456.71670296303
 20
2020.321890976124
 30
0.0
 40
2.0
100
AcDbArc
 50
270.0
 51
0.0
  0
ARC
  5
BCF9
330
1F
100
AcDbEntity
  8
1
100
AcDbCircle
 10
13456.71670296303
 20
1856.321890976124
 30
0.0
 40
2.0
100
AcDbArc
 50
0.0
 51
90.00000000000005
  0
LINE
  5
BD0E
330
1F
100
AcDbEntity
  8
1
100
AcDbLine
 10
13492.71670296303
 20
2007.321890976124
 30
0.0
 11
13485.7303090392
 21
2008.486289963429
 31
0.0
  0
ARC
  5
BD19
330
1F
100
AcDbEntity
  8
1
100
AcDbCircle
 10
13486.71670296303
 20
2014.404653506421
 30
0.0
 40
6.0
100
AcDbArc
 50
180.0
 51
260.5376777919819
  0
LINE
  5
BD1A
330
1F
100
AcDbEntity
  8
1
100
AcDbLine
 10
13492.71670296303
 20
1869.321890976123
 30
0.0
 11
13485.7303090392
 21
1868.157491988818
 31
0.0
  0
ARC
  5
BD1B
330
1F
100
AcDbEntity
  8
1
100
AcDbCircle
 10
13486.71670296303
 20
1862.239128445826
 30
0.0
 40
6.0
100
AcDbArc
 50
99.46232220801816
 51
180.0
  0
LINE
  5
BD8D
330
1F
100
AcDbEntity
  8
1
100
AcDbLine
 10
14181.09236465123
 20
2073.321890976123
 30
0.0
 11
14181.09236465123
 21
1803.321890976123
 31
0.0
  0
ARC
  5
BD8F
330
1F
100
AcDbEntity
  8
1
100
AcDbCircle
 10
14179.09236465123
 20
2037.821890976124
 30
0.0
 40
2.0
100
AcDbArc
 50
270.0
 51
0.0
  0
ARC
  5
BD90
330
1F
100
AcDbEntity
  8
1
100
AcDbCircle
 10
14179.09236465123
 20
1838.821890976123
 30
0.0
 40
2.0
100
AcDbArc
 50
0.0
 51
90.00000000000005
  0
LINE
  5
BDAF
330
1F
100
AcDbEntity
  8
1
100
AcDbLine
 10
14219.09236465123
 20
2021.321890976123
 30
0.0
 11
14219.09236465123
 21
1855.321890976123
 31
0.0
  0
LINE
  5
BDB0
330
1F
100
AcDbEntity
  8
1
100
AcDbLine
 10
14219.09236465123
 20
2021.321890976123
 30
0.0
 11
14209.83519011885
 21
2023.305571233063
 31
0.0
  0
ARC
  5
BDB1
330
1F
100
AcDbEntity
  8
1
100
AcDbCircle
 10
14211.09236465124
 20
2029.172385717527
 30
0.0
 40
6.0
100
AcDbArc
 50
180.0
 51
257.9052429229829
  0
LINE
  5
BDBB
330
1F
100
AcDbEntity
  8
1
100
AcDbLine
 10
14219.09236465123
 20
1855.321890976124
 30
0.0
 11
14209.83519011885
 21
1853.338210719185
 31
0.0
  0
ARC
  5
BDBC
330
1F
100
AcDbEntity
  8
1
100
AcDbCircle
 10
14211.09236465124
 20
1847.47139623472
 30
0.0
 40
6.0
100
AcDbArc
 50
102.094757077017
 51
180.0
  0
LINE
  5
BE56
330
1F
100
AcDbEntity
  8
1
100
AcDbLine
 10
14953.42734419713
 20
2090.821890976124
 30
0.0
 11
14953.42734419713
 21
1785.821890976123
 31
0.0
  0
ARC
  5
BE58
330
1F
100
AcDbEntity
  8
1
100
AcDbCircle
 10
14951.42734419713
 20
2055.321890976124
 30
0.0
 40
2.0
100
AcDbArc
 50
270.0
 51
0.0
  0
ARC
  5
BE59
330
1F
100
AcDbEntity
  8
1
100
AcDbCircle
 10
14951.42734419713
 20
1821.321890976123
 30
0.0
 40
2.0
100
AcDbArc
 50
0.0
 51
90.00000000000005
  0
LINE
  5
BE79
330
1F
100
AcDbEntity
  8
1
100
AcDbLine
 10
14993.42734419713
 20
2036.321890976124
 30
0.0
 11
14993.42734419713
 21
1840.321890976123
 31
0.0
  0
LINE
  5
BE7C
330
1F
100
AcDbEntity
  8
1
100
AcDbLine
 10
14993.42734419713
 20
2036.321890976124
 30
0.0
 11
14984.17016966474
 21
2038.305571233063
 31
0.0
  0
ARC
  5
BE7D
330
1F
100
AcDbEntity
  8
1
100
AcDbCircle
 10
14985.42734419713
 20
2044.172385717527
 30
0.0
 40
6.0
100
AcDbArc
 50
180.0
 51
257.9052429229829
  0
LINE
  5
BE9D
330
1F
100
AcDbEntity
  8
1
100
AcDbLine
 10
14993.42734419713
 20
1840.321890976123
 30
0.0
 11
14984.17016966474
 21
1838.338210719184
 31
0.0
  0
ARC
  5
BE9E
330
1F
100
AcDbEntity
  8
1
100
AcDbCircle
 10
14985.42734419713
 20
1832.47139623472
 30
0.0
 40
6.0
100
AcDbArc
 50
102.094757077017
 51
180.0
  0
LINE
  5
BF0B
330
1F
100
AcDbEntity
  8
1
100
AcDbLine
 10
16583.40137970334
 20
2113.321890976123
 30
0.0
 11
16583.40137970334
 21
1763.321890976123
 31
0.0
  0
ARC
  5
BF0D
330
1F
100
AcDbEntity
  8
1
100
AcDbCircle
 10
16581.40137970334
 20
2077.821890976124
 30
0.0
 40
2.0
100
AcDbArc
 50
270.0
 51
0.0
  0
ARC
  5
BF0E
330
1F
100
AcDbEntity
  8
1
100
AcDbCircle
 10
16581.40137970334
 20
1798.821890976124
 30
0.0
 40
2.0
100
AcDbArc
 50
0.0
 51
90.00000000000005
  0
LINE
  5
BF37
330
1F
100
AcDbEntity
  8
1
100
AcDbLine
 10
16627.40137970334
 20
2060.321890976123
 30
0.0
 11
16627.40137970334
 21
1816.321890976124
 31
0.0
  0
LINE
  5
BF3A
330
1F
100
AcDbEntity
  8
1
100
AcDbLine
 10
16615.94616595313
 20
2063.185694413679
 30
0.0
 11
16627.40137970334
 21
2060.321890976124
 31
0.0
  0
ARC
  5
BF3B
330
1F
100
AcDbEntity
  8
1
100
AcDbCircle
 10
16617.40137970335
 20
2069.00654941455
 30
0.0
 40
6.0
100
AcDbArc
 50
180.0
 51
255.9637565320746
  0
LINE
  5
BF45
330
1F
100
AcDbEntity
  8
1
100
AcDbLine
 10
16615.94616595313
 20
1813.458087538569
 30
0.0
 11
16627.40137970334
 21
1816.321890976124
 31
0.0
  0
ARC
  5
BF46
330
1F
100
AcDbEntity
  8
1
100
AcDbCircle
 10
16617.40137970335
 20
1807.637232537697
 30
0.0
 40
6.0
100
AcDbArc
 50
104.0362434679254
 51
180.0
  0
LINE
  5
BFB3
330
1F
100
AcDbEntity
  8
1
100
AcDbLine
 10
18258.3188423791
 20
2153.321890976123
 30
0.0
 11
18258.31884237909
 21
1723.321890976124
 31
0.0
  0
ARC
  5
BFB5
330
1F
100
AcDbEntity
  8
1
100
AcDbCircle
 10
18256.3188423791
 20
2112.821890976124
 30
0.0
 40
2.0
100
AcDbArc
 50
270.0
 51
0.0
  0
ARC
  5
BFB6
330
1F
100
AcDbEntity
  8
1
100
AcDbCircle
 10
18256.3188423791
 20
1763.821890976123
 30
0.0
 40
2.0
100
AcDbArc
 50
0.0
 51
90.00000000000005
  0
LINE
  5
BFC3
330
1F
100
AcDbEntity
  8
1
100
AcDbLine
 10
18308.31884237909
 20
2090.321890976124
 30
0.0
 11
18308.31884237909
 21
1786.321890976123
 31
0.0
  0
LINE
  5
BFDA
330
1F
100
AcDbEntity
  8
1
100
AcDbLine
 10
18295.01725963219
 20
2093.277798253215
 30
0.0
 11
18308.31884237909
 21
2090.321890976124
 31
0.0
  0
ARC
  5
BFDB
330
1F
100
AcDbEntity
  8
1
100
AcDbCircle
 10
18296.3188423791
 20
2099.13492061432
 30
0.0
 40
6.0
100
AcDbArc
 50
180.0
 51
257.4711922908372
  0
LINE
  5
BFE5
330
1F
100
AcDbEntity
  8
1
100
AcDbLine
 10
18295.01725963219
 20
1783.365983699033
 30
0.0
 11
18308.31884237909
 21
1786.321890976124
 31
0.0
  0
ARC
  5
BFE6
330
1F
100
AcDbEntity
  8
1
100
AcDbCircle
 10
18296.3188423791
 20
1777.508861337927
 30
0.0
 40
6.0
100
AcDbArc
 50
102.5288077091628
 51
180.0
  0
LINE
  5
C05A
330
1F
100
AcDbEntity
  8
1
100
AcDbLine
 10
12848.48179704979
 20
1438.619440937447
 30
0.0
 11
12848.48179704981
 21
958.6194409374465
 31
0.0
  0
ARC
  5
C05C
330
1F
100
AcDbEntity
  8
1
100
AcDbCircle
 10
12845.48179704979
 20
1399.119440937447
 30
0.0
 40
3.0
100
AcDbArc
 50
270.0
 51
0.0
  0
ARC
  5
C05D
330
1F
100
AcDbEntity
  8
1
100
AcDbCircle
 10
12845.48179704979
 20
998.1194409374475
 30
0.0
 40
3.0
100
AcDbArc
 50
0.0
 51
90.00000000000005
  0
LINE
  5
C08C
330
1F
100
AcDbEntity
  8
1
100
AcDbLine
 10
12901.48179704979
 20
1374.619440937448
 30
0.0
 11
12901.48179704981
 21
1022.619440937451
 31
0.0
  0
ARC
  5
C0BC
330
1F
100
AcDbEntity
  8
1
100
AcDbCircle
 10
12889.48179704979
 20
1386.865652188683
 30
0.0
 40
8.0
100
AcDbArc
 50
180.0000000000016
 51
255.9637565320795
  0
LINE
  5
C0BD
330
1F
100
AcDbEntity
  8
1
100
AcDbLine
 10
12887.5415120495
 20
1018.134369687374
 30
0.0
 11
12900.51165454966
 21
1021.376905312415
 31
0.0
  0
ARC
  5
C0BE
330
1F
100
AcDbEntity
  8
1
100
AcDbCircle
 10
12889.48179704979
 20
1010.373229686212
 30
0.0
 40
8.0
100
AcDbArc
 50
104.0362434679205
 51
179.9999999999984
  0
LINE
  5
C141
330
1F
100
AcDbEntity
  8
1
100
AcDbLine
 10
13742.52170522905
 20
1468.619440937447
 30
0.0
 11
13742.52170522905
 21
928.6194409374475
 31
0.0
  0
ARC
  5
C143
330
1F
100
AcDbEntity
  8
1
100
AcDbCircle
 10
13739.52170522905
 20
1421.619440937447
 30
0.0
 40
3.0
100
AcDbArc
 50
270.0
 51
0.0
  0
ARC
  5
C144
330
1F
100
AcDbEntity
  8
1
100
AcDbCircle
 10
13739.52170522905
 20
975.6194409374474
 30
0.0
 40
3.0
100
AcDbArc
 50
0.0
 51
90.00000000000005
  0
LINE
  5
C178
330
1F
100
AcDbEntity
  8
1
100
AcDbLine
 10
13801.52170522906
 20
1396.619440937447
 30
0.0
 11
13801.52170522906
 21
1000.619440937447
 31
0.0
  0
LINE
  5
C17B
330
1F
100
AcDbEntity
  8
1
100
AcDbLine
 10
13785.74873640034
 20
1401.204206580336
 30
0.0
 11
13800.54657237327
 21
1397.841062041036
 31
0.0
  0
ARC
  5
C17C
330
1F
100
AcDbEntity
  8
1
100
AcDbCircle
 10
13787.52170522905
 20
1409.005269426668
 30
0.0
 40
8.0
100
AcDbArc
 50
180.0
 51
257.1957339347193
  0
LINE
  5
C186
330
1F
100
AcDbEntity
  8
1
100
AcDbLine
 10
13785.74873640034
 20
996.0346752945584
 30
0.0
 11
13800.54657237327
 21
999.3978198338588
 31
0.0
  0
ARC
  5
C187
330
1F
100
AcDbEntity
  8
1
100
AcDbCircle
 10
13787.52170522905
 20
988.2336124482266
 30
0.0
 40
8.0
100
AcDbArc
 50
102.8042660652807
 51
180.0
  0
LINE
  5
C200
330
1F
100
AcDbEntity
  8
1
100
AcDbLine
 10
14885.47926795767
 20
1501.119440937447
 30
0.0
 11
14885.47926795767
 21
896.1194409374471
 31
0.0
  0
ARC
  5
C202
330
1F
100
AcDbEntity
  8
1
100
AcDbCircle
 10
14882.47926795767
 20
1449.119440937447
 30
0.0
 40
3.0
100
AcDbArc
 50
270.0
 51
0.0
  0
ARC
  5
C203
330
1F
100
AcDbEntity
  8
1
100
AcDbCircle
 10
14882.47926795767
 20
948.1194409374475
 30
0.0
 40
3.0
100
AcDbArc
 50
0.0
 51
90.00000000000005
  0
LINE
  5
C228
330
1F
100
AcDbEntity
  8
1
100
AcDbLine
 10
14952.47926795767
 20
1420.619440937447
 30
0.0
 11
14952.47926795767
 21
976.6194409374477
 31
0.0
  0
LINE
  5
C22B
330
1F
100
AcDbEntity
  8
1
100
AcDbLine
 10
14951.50028753793
 20
1421.823395191559
 30
0.0
 11
14936.43972541654
 21
1424.961012300181
 31
0.0
  0
ARC
  5
C22C
330
1F
100
AcDbEntity
  8
1
100
AcDbCircle
 10
14938.47926795766
 20
1434.750816497557
 30
0.0
 40
10.0
100
AcDbArc
 50
180.0000000000013
 51
258.2317110679863
  0
LINE
  5
C23F
330
1F
100
AcDbEntity
  8
1
100
AcDbLine
 10
14951.50028753793
 20
975.4154866833358
 30
0.0
 11
14936.43972541654
 21
972.2778695747136
 31
0.0
  0
ARC
  5
C240
330
1F
100
AcDbEntity
  8
1
100
AcDbCircle
 10
14938.47926795766
 20
962.4880653773372
 30
0.0
 40
10.0
100
AcDbArc
 50
101.7682889320136
 51
179.9999999999987
  0
LINE
  5
C2B9
330
1F
100
AcDbEntity
  8
1
100
AcDbLine
 10
16366.79132259403
 20
1536.119440937446
 30
0.0
 11
16366.79132259403
 21
861.1194409374471
 31
0.0
  0
ARC
  5
C2BB
330
1F
100
AcDbEntity
  8
1
100
AcDbCircle
 10
16363.79132259403
 20
1481.619440937446
 30
0.0
 40
3.0
100
AcDbArc
 50
270.0
 51
0.0
  0
ARC
  5
C2CE
330
1F
100
AcDbEntity
  8
1
100
AcDbCircle
 10
16363.79132259403
 20
915.6194409374476
 30
0.0
 40
3.0
100
AcDbArc
 50
0.0
 51
90.00000000000005
  0
LINE
  5
C2D8
330
1F
100
AcDbEntity
  8
1
100
AcDbLine
 10
16441.79132259403
 20
1449.619440937447
 30
0.0
 11
16441.79132259403
 21
947.6194409374473
 31
0.0
  0
LINE
  5
C2DB
330
1F
100
AcDbEntity
  8
1
100
AcDbLine
 10
16440.8049286702
 20
1450.783839924752
 30
0.0
 11
16420.14733272097
 21
1454.226772582956
 31
0.0
  0
ARC
  5
C2DC
330
1F
100
AcDbEntity
  8
1
100
AcDbCircle
 10
16421.79132259401
 20
1464.090711821278
 30
0.0
 40
10.0
100
AcDbArc
 50
180.0000000000013
 51
260.5376777919772
  0
LINE
  5
C2E6
330
1F
100
AcDbEntity
  8
1
100
AcDbLine
 10
16440.8049286702
 20
946.4550419501421
 30
0.0
 11
16420.14733272097
 21
943.0121092919389
 31
0.0
  0
ARC
  5
C2E7
330
1F
100
AcDbEntity
  8
1
100
AcDbCircle
 10
16421.79132259401
 20
933.1481700536164
 30
0.0
 40
10.0
100
AcDbArc
 50
99.46232220802286
 51
179.9999999999987
  0
LINE
  5
C352
330
1F
100
AcDbEntity
  8
1
100
AcDbLine
 10
18025.34209346552
 20
1563.619440937447
 30
0.0
 11
18025.34209346552
 21
833.6194409374471
 31
0.0
  0
ARC
  5
C354
330
1F
100
AcDbEntity
  8
1
100
AcDbCircle
 10
18022.34209346552
 20
1509.119440937447
 30
0.0
 40
3.0
100
AcDbArc
 50
270.0
 51
0.0
  0
ARC
  5
C355
330
1F
100
AcDbEntity
  8
1
100
AcDbCircle
 10
18022.34209346552
 20
888.1194409374471
 30
0.0
 40
3.0
100
AcDbArc
 50
0.0
 51
90.00000000000005
  0
LINE
  5
C377
330
1F
100
AcDbEntity
  8
1
100
AcDbLine
 10
18106.34209346552
 20
1476.619440937447
 30
0.0
 11
18106.34209346552
 21
920.6194409374479
 31
0.0
  0
LINE
  5
C37A
330
1F
100
AcDbEntity
  8
1
100
AcDbLine
 10
18080.88715356056
 20
1481.362814452882
 30
0.0
 11
18105.35273433015
 21
1477.764934927942
 31
0.0
  0
ARC
  5
C37B
330
1F
100
AcDbEntity
  8
1
100
AcDbCircle
 10
18082.34209346551
 20
1491.25640580653
 30
0.0
 40
10.0
100
AcDbArc
 50
180.0000000000013
 51
261.6341138759771
  0
LINE
  5
C37C
330
1F
100
AcDbEntity
  8
1
100
AcDbLine
 10
18080.88715356056
 20
915.8760674220127
 30
0.0
 11
18105.35273433015
 21
919.473946946953
 31
0.0
  0
ARC
  5
C37D
330
1F
100
AcDbEntity
  8
1
100
AcDbCircle
 10
18082.34209346551
 20
905.9824760683646
 30
0.0
 40
10.0
100
AcDbArc
 50
98.36588612402293
 51
179.9999999999987
  0
LINE
  5
C3FC
330
1F
100
AcDbEntity
  8
1
100
AcDbLine
 10
13451.5709020641
 20
545.4104909307118
 30
0.0
 11
13451.5709020641
 21
-249.5895090692874
 31
0.0
  0
ARC
  5
C3FE
330
1F
100
AcDbEntity
  8
1
100
AcDbCircle
 10
13448.5709020641
 20
485.9104909307126
 30
0.0
 40
3.0
100
AcDbArc
 50
270.0
 51
0.0
  0
ARC
  5
C3FF
330
1F
100
AcDbEntity
  8
1
100
AcDbCircle
 10
13448.5709020641
 20
-190.0895090692871
 30
0.0
 40
3.0
100
AcDbArc
 50
0.0
 51
90.00000000000005
  0
LINE
  5
C41D
330
1F
100
AcDbEntity
  8
1
100
AcDbLine
 10
13538.57090206411
 20
452.9104909307126
 30
0.0
 11
13538.57090206411
 21
-157.0895090692872
 31
0.0
  0
LINE
  5
C420
330
1F
100
AcDbEntity
  8
1
100
AcDbLine
 10
13509.26635693838
 20
457.7663521314645
 30
0.0
 11
13537.57944776857
 21
454.0409454432839
 31
0.0
  0
ARC
  5
C421
330
1F
100
AcDbEntity
  8
1
100
AcDbCircle
 10
13510.57090206409
 20
467.6808950868897
 30
0.0
 40
10.0
100
AcDbArc
 50
180.0000000000013
 51
262.5041423602745
  0
LINE
  5
C42B
330
1F
100
AcDbEntity
  8
1
100
AcDbLine
 10
13509.26635693838
 20
-161.9453702700394
 30
0.0
 11
13537.57944776857
 21
-158.2199635818585
 31
0.0
  0
ARC
  5
C42C
330
1F
100
AcDbEntity
  8
1
100
AcDbCircle
 10
13510.57090206409
 20
-171.8599132254644
 30
0.0
 40
10.0
100
AcDbArc
 50
97.49585763972547
 51
179.9999999999987
  0
LINE
  5
C495
330
1F
100
AcDbEntity
  8
1
100
AcDbLine
 10
14859.90379359167
 20
570.4104909307115
 30
0.0
 11
14859.90379359168
 21
-274.5895090692875
 31
0.0
  0
ARC
  5
C497
330
1F
100
AcDbEntity
  8
1
100
AcDbCircle
 10
14856.90379359167
 20
510.9104909307126
 30
0.0
 40
3.0
100
AcDbArc
 50
270.0
 51
0.0
  0
ARC
  5
C498
330
1F
100
AcDbEntity
  8
1
100
AcDbCircle
 10
14856.90379359167
 20
-215.0895090692872
 30
0.0
 40
3.0
100
AcDbArc
 50
0.0
 51
90.00000000000005
  0
LINE
  5
C4B4
330
1F
100
AcDbEntity
  8
1
100
AcDbLine
 10
14952.90379359167
 20
478.9104909307123
 30
0.0
 11
14952.90379359167
 21
-183.0895090692873
 31
0.0
  0
LINE
  5
C4B7
330
1F
100
AcDbEntity
  8
1
100
AcDbLine
 10
14919.72166469381
 20
484.8607443709337
 30
0.0
 11
14950.91781704328
 21
481.1469167102826
 31
0.0
  0
ARC
  5
C4C1
330
1F
100
AcDbEntity
  8
1
100
AcDbCircle
 10
14920.90379359165
 20
494.7906271128828
 30
0.0
 40
10.0
100
AcDbArc
 50
180.0000000000016
 51
263.2110254255679
  0
LINE
  5
C4C2
330
1F
100
AcDbEntity
  8
1
100
AcDbLine
 10
14919.72166469381
 20
-189.0397625095081
 30
0.0
 11
14950.91781704328
 21
-185.3259348488575
 31
0.0
  0
ARC
  5
C4C3
330
1F
100
AcDbEntity
  8
1
100
AcDbCircle
 10
14920.90379359165
 20
-198.9696452514573
 30
0.0
 40
10.0
100
AcDbArc
 50
96.78897457443213
 51
179.9999999999984
  0
CIRCLE
  5
C4C5
330
1F
100
AcDbEntity
  8
1
100
AcDbCircle
 10
14185.83672459348
 20
147.9104909307127
 30
0.0
 40
360.0
  0
CIRCLE
  5
C4C7
330
1F
100
AcDbEntity
  8
1
100
AcDbCircle
 10
12799.32785658981
 20
147.9104909307127
 30
0.0
 40
335.0
  0
CIRCLE
  5
C4C9
330
1F
100
AcDbEntity
  8
1
100
AcDbCircle
 10
15776.63077019506
 20
1198.619440937447
 30
0.0
 40
280.0
  0
CIRCLE
  5
C4CB
330
1F
100
AcDbEntity
  8
1
100
AcDbCircle
 10
14391.23813726077
 20
1198.619440937447
 30
0.0
 40
247.4999999999998
  0
CIRCLE
  5
C4CD
330
1F
100
AcDbEntity
  8
1
100
AcDbCircle
 10
13339.72275604507
 20
1198.619440937447
 30
0.0
 40
219.9999999999998
  0
CIRCLE
  5
C4D0
330
1F
100
AcDbEntity
  8
1
100
AcDbCircle
 10
12508.31530394205
 20
1198.619440937447
 30
0.0
 40
197.5
  0
CIRCLE
  5
C4D2
330
1F
100
AcDbEntity
  8
1
100
AcDbCircle
 10
17930.08741109269
 20
1938.321890976123
 30
0.0
 40
172.5
  0
CIRCLE
  5
C4D4
330
1F
100
AcDbEntity
  8
1
100
AcDbCircle
 10
16270.41154638935
 20
1938.321890976123
 30
0.0
 40
137.5
  0
CIRCLE
  5
C4D6
330
1F
100
AcDbEntity
  8
1
100
AcDbCircle
 10
14690.27530117054
 20
1938.321890976123
 30
0.0
 40
115.0
  0
CIRCLE
  5
C4D8
330
1F
100
AcDbEntity
  8
1
100
AcDbCircle
 10
13957.36003241772
 20
1938.321890976123
 30
0.0
 40
97.50000000000046
  0
CIRCLE
  5
C4DA
330
1F
100
AcDbEntity
  8
1
100
AcDbCircle
 10
13250.60292167805
 20
1938.321890976123
 30
0.0
 40
79.99999999999976
  0
CIRCLE
  5
C4DC
330
1F
100
AcDbEntity
  8
1
100
AcDbCircle
 10
12524.99827517284
 20
1938.321890976123
 30
0.0
 40
72.5
  0
CIRCLE
  5
C4DE
330
1F
100
AcDbEntity
  8
1
100
AcDbCircle
 10
17869.35830237807
 20
2363.617321746548
 30
0.0
 40
66.00000000000045
  0
MTEXT
  5
C57A
330
1F
100
AcDbEntity
  8
1
100
AcDbMText
 10
12237.64555523854
 20
2742.031691184952
 30
0.0
 40
100.0
 41
2820.119398119697
 71
     1
 72
     5
  1
{\fMS PGothic|b0|i0|c128|p50;ＪＩＳ ２０Ｋ　ＲＦ　スリップオン溶接式、ＳＯＨ}
 73
     1
 44
1.0
1001
ACAD
1000
MTEXTBEGIN
1070
    73
1070
     1
1070
    44
1040
1.0
1070
    74
1070
     0
1000
MTEXTEND
  0
LINE
  5
C708
330
1F
100
AcDbEntity
  8
1
100
AcDbLine
 10
12571.1857122399
 20
2408.617321746547
 30
0.0
 11
12572.1857122399
 21
2407.617321746547
 31
0.0
  0
LINE
  5
C709
330
1F
100
AcDbEntity
  8
1
100
AcDbLine
 10
12572.1857122399
 20
2319.61732174655
 30
0.0
 11
12571.1857122399
 21
2318.61732174655
 31
0.0
  0
LINE
  5
C70A
330
1F
100
AcDbEntity
  8
1
100
AcDbLine
 10
13165.19468368066
 20
2411.117321746548
 30
0.0
 11
13166.19468368066
 21
2410.117321746548
 31
0.0
  0
LINE
  5
C70B
330
1F
100
AcDbEntity
  8
1
100
AcDbLine
 10
13166.19468368066
 20
2317.117321746546
 30
0.0
 11
13165.19468368066
 21
2316.117321746546
 31
0.0
  0
LINE
  5
C70C
330
1F
100
AcDbEntity
  8
1
100
AcDbLine
 10
13806.83384332011
 20
2413.617321746548
 30
0.0
 11
13807.83384332011
 21
2412.617321746548
 31
0.0
  0
LINE
  5
C70D
330
1F
100
AcDbEntity
  8
1
100
AcDbLine
 10
13807.83384332011
 20
2314.617321746546
 30
0.0
 11
13806.83384332011
 21
2313.617321746546
 31
0.0
  0
LINE
  5
C70E
330
1F
100
AcDbEntity
  8
1
100
AcDbLine
 10
14438.1868932918
 20
2426.117321746548
 30
0.0
 11
14439.1868932918
 21
2425.117321746548
 31
0.0
  0
LINE
  5
C70F
330
1F
100
AcDbEntity
  8
1
100
AcDbLine
 10
14439.1868932918
 20
2302.117321746548
 30
0.0
 11
14438.1868932918
 21
2301.117321746549
 31
0.0
  0
LINE
  5
C710
330
1F
100
AcDbEntity
  8
1
100
AcDbLine
 10
15118.59929565239
 20
2431.117321746548
 30
0.0
 11
15119.59929565239
 21
2430.117321746548
 31
0.0
  0
LINE
  5
C711
330
1F
100
AcDbEntity
  8
1
100
AcDbLine
 10
15119.59929565239
 20
2297.117321746547
 30
0.0
 11
15118.59929565239
 21
2296.117321746547
 31
0.0
  0
LINE
  5
C712
330
1F
100
AcDbEntity
  8
1
100
AcDbLine
 10
15827.03540485587
 20
2433.617321746547
 30
0.0
 11
15828.03540485587
 21
2432.617321746547
 31
0.0
  0
LINE
  5
C713
330
1F
100
AcDbEntity
  8
1
100
AcDbLine
 10
15828.03540485587
 20
2294.617321746548
 30
0.0
 11
15827.03540485587
 21
2293.617321746548
 31
0.0
  0
LINE
  5
C714
330
1F
100
AcDbEntity
  8
1
100
AcDbLine
 10
16538.04282027691
 20
2441.117321746547
 30
0.0
 11
16539.04282027691
 21
2440.117321746547
 31
0.0
  0
LINE
  5
C715
330
1F
100
AcDbEntity
  8
1
100
AcDbLine
 10
16539.04282027691
 20
2287.117321746548
 30
0.0
 11
16538.04282027691
 21
2286.117321746548
 31
0.0
  0
LINE
  5
C716
330
1F
100
AcDbEntity
  8
1
100
AcDbLine
 10
17273.59681070379
 20
2451.117321746548
 30
0.0
 11
17274.59681070379
 21
2450.117321746548
 31
0.0
  0
LINE
  5
C717
330
1F
100
AcDbEntity
  8
1
100
AcDbLine
 10
17274.59681070379
 20
2277.117321746546
 30
0.0
 11
17273.59681070379
 21
2276.117321746546
 31
0.0
  0
LINE
  5
C718
330
1F
100
AcDbEntity
  8
1
100
AcDbLine
 10
18101.07202643633
 20
2463.617321746548
 30
0.0
 11
18102.07202643633
 21
2462.617321746548
 31
0.0
  0
LINE
  5
C719
330
1F
100
AcDbEntity
  8
1
100
AcDbLine
 10
18102.07202643633
 20
2264.617321746547
 30
0.0
 11
18101.07202643633
 21
2263.617321746547
 31
0.0
  0
LINE
  5
C71A
330
1F
100
AcDbEntity
  8
1
100
AcDbLine
 10
12754.11205645783
 20
2043.321890976124
 30
0.0
 11
12755.11205645783
 21
2042.321890976124
 31
0.0
  0
LINE
  5
C71B
330
1F
100
AcDbEntity
  8
1
100
AcDbLine
 10
12755.11205645783
 20
1834.321890976122
 30
0.0
 11
12754.11205645783
 21
1833.321890976122
 31
0.0
  0
LINE
  5
C71C
330
1F
100
AcDbEntity
  8
1
100
AcDbLine
 10
13479.71670296303
 20
2050.821890976123
 30
0.0
 11
13480.71670296303
 21
2049.821890976123
 31
0.0
  0
LINE
  5
C71D
330
1F
100
AcDbEntity
  8
1
100
AcDbLine
 10
13480.71670296304
 20
1826.821890976123
 30
0.0
 11
13479.71670296304
 21
1825.821890976123
 31
0.0
  0
LINE
  5
C71E
330
1F
100
AcDbEntity
  8
1
100
AcDbLine
 10
14204.09236465124
 20
2073.321890976123
 30
0.0
 11
14205.09236465124
 21
2072.321890976123
 31
0.0
  0
LINE
  5
C71F
330
1F
100
AcDbEntity
  8
1
100
AcDbLine
 10
14205.09236465123
 20
1804.321890976123
 30
0.0
 11
14204.09236465123
 21
1803.321890976123
 31
0.0
  0
LINE
  5
C720
330
1F
100
AcDbEntity
  8
1
100
AcDbLine
 10
14978.42734419713
 20
2090.821890976124
 30
0.0
 11
14979.42734419713
 21
2089.821890976124
 31
0.0
  0
LINE
  5
C721
330
1F
100
AcDbEntity
  8
1
100
AcDbLine
 10
14979.42734419713
 20
1786.821890976123
 30
0.0
 11
14978.42734419713
 21
1785.821890976123
 31
0.0
  0
LINE
  5
C722
330
1F
100
AcDbEntity
  8
1
100
AcDbLine
 10
16610.40137970335
 20
2113.321890976123
 30
0.0
 11
16611.40137970335
 21
2112.321890976123
 31
0.0
  0
LINE
  5
C723
330
1F
100
AcDbEntity
  8
1
100
AcDbLine
 10
16611.40137970333
 20
1764.321890976123
 30
0.0
 11
16610.40137970333
 21
1763.321890976123
 31
0.0
  0
LINE
  5
C724
330
1F
100
AcDbEntity
  8
1
100
AcDbLine
 10
18289.3188423791
 20
2153.321890976124
 30
0.0
 11
18290.3188423791
 21
2152.321890976124
 31
0.0
  0
LINE
  5
C725
330
1F
100
AcDbEntity
  8
1
100
AcDbLine
 10
18290.31884237909
 20
1724.321890976123
 30
0.0
 11
18289.31884237909
 21
1723.321890976123
 31
0.0
  0
LINE
  5
C726
330
1F
100
AcDbEntity
  8
1
100
AcDbLine
 10
18071.3420934655
 20
1563.619440937447
 30
0.0
 11
18072.3420934655
 21
1562.619440937447
 31
0.0
  0
LINE
  5
C727
330
1F
100
AcDbEntity
  8
1
100
AcDbLine
 10
18105.35273433015
 20
1477.764934927942
 30
0.0
 11
18106.34209346552
 21
1476.619440937447
 31
0.0
  0
LINE
  5
C728
330
1F
100
AcDbEntity
  8
1
100
AcDbLine
 10
18071.34209346552
 20
833.6194409374474
 30
0.0
 11
18072.34209346552
 21
834.6194409374474
 31
0.0
  0
LINE
  5
C729
330
1F
100
AcDbEntity
  8
1
100
AcDbLine
 10
18105.35273433015
 20
919.473946946953
 30
0.0
 11
18106.34209346552
 21
920.6194409374479
 31
0.0
  0
LINE
  5
C72A
330
1F
100
AcDbEntity
  8
1
100
AcDbLine
 10
16410.79132259403
 20
861.1194409374475
 30
0.0
 11
16411.79132259403
 21
862.1194409374474
 31
0.0
  0
LINE
  5
C72B
330
1F
100
AcDbEntity
  8
1
100
AcDbLine
 10
16441.79132259403
 20
947.6194409374473
 30
0.0
 11
16440.8049286702
 21
946.4550419501421
 31
0.0
  0
LINE
  5
C72C
330
1F
100
AcDbEntity
  8
1
100
AcDbLine
 10
16440.8049286702
 20
1450.783839924752
 30
0.0
 11
16441.79132259403
 21
1449.619440937447
 31
0.0
  0
LINE
  5
C72D
330
1F
100
AcDbEntity
  8
1
100
AcDbLine
 10
16410.79132259401
 20
1536.119440937446
 30
0.0
 11
16411.79132259401
 21
1535.119440937446
 31
0.0
  0
LINE
  5
C72E
330
1F
100
AcDbEntity
  8
1
100
AcDbLine
 10
14927.47926795766
 20
896.1194409374474
 30
0.0
 11
14928.47926795766
 21
897.1194409374474
 31
0.0
  0
LINE
  5
C72F
330
1F
100
AcDbEntity
  8
1
100
AcDbLine
 10
14951.50028753793
 20
975.4154866833358
 30
0.0
 11
14952.47926795767
 21
976.6194409374477
 31
0.0
  0
LINE
  5
C730
330
1F
100
AcDbEntity
  8
1
100
AcDbLine
 10
14927.47926795766
 20
1501.119440937447
 30
0.0
 11
14928.47926795766
 21
1500.119440937447
 31
0.0
  0
LINE
  5
C731
330
1F
100
AcDbEntity
  8
1
100
AcDbLine
 10
14951.50028753793
 20
1421.823395191559
 30
0.0
 11
14952.47926795767
 21
1420.619440937447
 31
0.0
  0
LINE
  5
C732
330
1F
100
AcDbEntity
  8
1
100
AcDbLine
 10
13778.52170522906
 20
1468.619440937447
 30
0.0
 11
13779.52170522906
 21
1467.619440937447
 31
0.0
  0
LINE
  5
C733
330
1F
100
AcDbEntity
  8
1
100
AcDbLine
 10
13800.54657237327
 20
1397.841062041036
 30
0.0
 11
13801.52170522906
 21
1396.619440937447
 31
0.0
  0
LINE
  5
C734
330
1F
100
AcDbEntity
  8
1
100
AcDbLine
 10
13778.52170522906
 20
928.6194409374475
 30
0.0
 11
13779.52170522906
 21
929.6194409374475
 31
0.0
  0
LINE
  5
C735
330
1F
100
AcDbEntity
  8
1
100
AcDbLine
 10
13800.54657237327
 20
999.3978198338588
 30
0.0
 11
13801.52170522906
 21
1000.619440937447
 31
0.0
  0
LINE
  5
C736
330
1F
100
AcDbEntity
  8
1
100
AcDbLine
 10
12880.4817970498
 20
1438.619440937446
 30
0.0
 11
12881.4817970498
 21
1437.619440937447
 31
0.0
  0
LINE
  5
C737
330
1F
100
AcDbEntity
  8
1
100
AcDbLine
 10
12900.51165454965
 20
1375.861976562484
 30
0.0
 11
12901.48179704979
 21
1374.619440937448
 31
0.0
  0
LINE
  5
C738
330
1F
100
AcDbEntity
  8
1
100
AcDbLine
 10
12880.4817970498
 20
958.6194409374465
 30
0.0
 11
12881.4817970498
 21
959.6194409374465
 31
0.0
  0
LINE
  5
C739
330
1F
100
AcDbEntity
  8
1
100
AcDbLine
 10
12900.51165454966
 20
1021.376905312415
 30
0.0
 11
12901.48179704981
 21
1022.619440937451
 31
0.0
  0
LINE
  5
C73B
330
1F
100
AcDbEntity
  8
1
100
AcDbLine
 10
13537.57944776857
 20
-158.2199635818585
 30
0.0
 11
13538.57090206411
 21
-157.0895090692872
 31
0.0
  0
LINE
  5
C73D
330
1F
100
AcDbEntity
  8
1
100
AcDbLine
 10
13537.57944776857
 20
454.0409454432839
 30
0.0
 11
13538.57090206411
 21
452.9104909307126
 31
0.0
  0
LINE
  5
C73E
330
1F
100
AcDbEntity
  8
1
100
AcDbLine
 10
13498.57090206409
 20
545.4104909307122
 30
0.0
 11
13500.57090206409
 21
543.4104909307121
 31
0.0
  0
LINE
  5
C73F
330
1F
100
AcDbEntity
  8
1
100
AcDbLine
 10
13498.57090206411
 20
-249.5895090692874
 30
0.0
 11
13500.57090206411
 21
-247.5895090692874
 31
0.0
  0
LINE
  5
C740
330
1F
100
AcDbEntity
  8
1
100
AcDbLine
 10
14908.90379359168
 20
-274.5895090692874
 30
0.0
 11
14910.90379359168
 21
-272.5895090692874
 31
0.0
  0
LINE
  5
C741
330
1F
100
AcDbEntity
  8
1
100
AcDbLine
 10
14950.91781704328
 20
-185.3259348488575
 30
0.0
 11
14952.90379359167
 21
-183.0895090692873
 31
0.0
  0
LINE
  5
C742
330
1F
100
AcDbEntity
  8
1
100
AcDbLine
 10
14908.90379359165
 20
570.4104909307119
 30
0.0
 11
14910.90379359165
 21
568.4104909307119
 31
0.0
  0
LINE
  5
C743
330
1F
100
AcDbEntity
  8
1
100
AcDbLine
 10
14950.91781704328
 20
481.1469167102826
 30
0.0
 11
14952.90379359167
 21
478.9104909307123
 31
0.0
  0
ENDSEC
  0
SECTION
  2
OBJECTS
  0
DICTIONARY
  5
C
330
0
100
AcDbDictionary
281
     1
  3
ACAD_COLOR
350
D89
  3
ACAD_GROUP
350
D
  3
ACAD_LAYOUT
350
1A
  3
ACAD_MATERIAL
350
D88
  3
ACAD_MLINESTYLE
350
17
  3
ACAD_PLOTSETTINGS
350
19
  3
ACAD_PLOTSTYLENAME
350
E
  3
ACAD_TABLESTYLE
350
D8A
  3
ACAD_VISUALSTYLE
350
C6EC
  3
AcDbVariableDictionary
350
7E5
  3
DWGPROPS
350
C75F
  0
DICTIONARY
  5
C64D
330
2
100
AcDbDictionary
280
     1
281
     1
  3
ACAD_LAYERSTATES
360
C64E
  0
DICTIONARY
  5
DF
330
1F
100
AcDbDictionary
280
     1
281
     1
  3
ACAD_LAYOUTSELFREF
360
D85
  3
ACAD_SORTENTS
360
E06
  0
DICTIONARY
  5
E1
330
1B
100
AcDbDictionary
280
     1
281
     1
  3
ACAD_LAYOUTSELFREF
360
D84
  0
DICTIONARY
  5
E3
330
23
100
AcDbDictionary
280
     1
281
     1
  3
ACAD_LAYOUTSELFREF
360
D86
  0
DICTIONARY
  5
D89
102
{ACAD_REACTORS
330
C
102
}
330
C
100
AcDbDictionary
281
     1
  0
DICTIONARY
  5
D
102
{ACAD_REACTORS
330
C
102
}
330
C
100
AcDbDictionary
281
     1
  0
DICTIONARY
  5
1A
102
{ACAD_REACTORS
330
C
102
}
330
C
100
AcDbDictionary
281
     1
  3
Model
350
22
  3
ﾚｲｱｳﾄ1
350
1E
  3
ﾚｲｱｳﾄ2
350
26
  0
DICTIONARY
  5
D88
102
{ACAD_REACTORS
330
C
102
}
330
C
100
AcDbDictionary
281
     1
  3
ByBlock
350
C6EA
  3
ByLayer
350
C6E9
  3
Global
350
C6EB
  0
DICTIONARY
  5
17
102
{ACAD_REACTORS
330
C
102
}
330
C
100
AcDbDictionary
281
     1
  3
Standard
350
18
  0
DICTIONARY
  5
19
102
{ACAD_REACTORS
330
C
102
}
330
C
100
AcDbDictionary
281
     1
  0
ACDBDICTIONARYWDFLT
  5
E
102
{ACAD_REACTORS
330
C
102
}
330
C
100
AcDbDictionary
281
     1
  3
Normal
350
F
100
AcDbDictionaryWithDefault
340
F
  0
DICTIONARY
  5
D8A
102
{ACAD_REACTORS
330
C
102
}
330
C
100
AcDbDictionary
281
     1
  3
Standard
350
D8B
  0
DICTIONARY
  5
C6EC
102
{ACAD_REACTORS
330
C
102
}
330
C
100
AcDbDictionary
281
     1
  3
2dWireframe
350
C6F2
  3
3D Hidden
350
C6F4
  3
3dWireframe
350
C6F3
  3
Basic
350
C6F1
  3
Brighten
350
C6F8
  3
ColorChange
350
C6FC
  3
Conceptual
350
C6F5
  3
Dim
350
C6F7
  3
Facepattern
350
C6FB
  3
Flat
350
C6ED
  3
FlatWithEdges
350
C6EE
  3
Gouraud
350
C6EF
  3
GouraudWithEdges
350
C6F0
  3
Linepattern
350
C6FA
  3
Realistic
350
C6F6
  3
Thicken
350
C6F9
  0
DICTIONARY
  5
7E5
102
{ACAD_REACTORS
330
C
102
}
330
C
100
AcDbDictionary
281
     1
  3
CTABLESTYLE
350
DD2
  3
DIMASSOC
350
2256
  3
INDEXCTL
350
C75E
  3
PROJECTNAME
350
2257
  3
SORTENTS
350
7E6
  0
XRECORD
  5
C75F
102
{ACAD_REACTORS
330
C
102
}
330
C
100
AcDbXrecord
280
     1
  1
DWGPROPS COOKIE
  2

  3

  4

  6

  7

  8
sakata-desk1
  9

300
=
301
=
302
=
303
=
304
=
305
=
306
=
307
=
308
=
309
=
 40
3.788778414351851
 41
2452172.781987847
 42
2456067.375809815
  1

 90
        0
  0
DICTIONARY
  5
C64E
102
{ACAD_REACTORS
330
C64D
102
}
330
C64D
100
AcDbDictionary
281
     1
  0
XRECORD
  5
D85
102
{ACAD_REACTORS
330
DF
102
}
330
DF
100
AcDbXrecord
280
     1
340
1F
  0
SORTENTSTABLE
  5
E06
102
{ACAD_REACTORS
330
DF
102
}
330
DF
100
AcDbSortentsTable
330
1F
331
48CA
  5
8169
331
2A24
  5
809E
331
29A5
  5
8044
331
2906
  5
803A
331
266A
  5
7F41
331
25CB
  5
7ED4
331
A655
  5
AA58
331
A409
  5
A92F
331
A25C
  5
A888
331
A0EE
  5
A846
331
A37A
  5
30A7
331
9E82
  5
9F9A
331
9F21
  5
A762
331
7CE1
  5
2E13
331
5E68
  5
8085
331
247D
  5
7E9F
331
7BCD
  5
15C9
331
5A34
  5
305A
331
A849
  5
ABB0
331
A763
  5
AB27
331
974B
  5
A46F
331
9A00
  5
3228
331
972C
  5
A35B
331
9715
  5
A262
331
82DF
  5
A196
331
48CB
  5
816A
331
2A25
  5
809F
331
2791
  5
7F9A
331
A656
  5
AA59
331
A40A
  5
A930
331
A37B
  5
9784
331
A25D
  5
A897
331
A0EF
  5
A847
331
9F22
  5
A763
331
9D9C
  5
9F96
331
9B6D
  5
5D24
331
A31C
  5
FA3
331
7DB8
  5
9FEC
331
7CE2
  5
2E20
331
610F
  5
9F1A
331
6028
  5
9EF9
331
7BCE
  5
15B6
331
D07
  5
5B2A
331
A930
  5
AD5D
331
A84A
  5
ABB1
331
A764
  5
AB28
331
A813
  5
A0F0
331
974C
  5
A47E
331
972D
  5
A36A
331
9716
  5
A263
331
82E0
  5
A1A5
331
48CC
  5
816B
331
2A26
  5
80A0
331
29A7
  5
8045
331
2753
  5
7F49
331
25CD
  5
7ED6
331
A657
  5
AA5A
331
A40B
  5
A931
331
A25E
  5
A8A4
331
A0F0
  5
A848
331
9F23
  5
A764
331
9D9D
  5
A655
331
7E7F
  5
A0D1
331
7CE3
  5
9E07
331
7BCF
  5
9F1E
331
6110
  5
9F1B
331
7BEE
  5
273B
331
5A36
  5
7F48
331
1FBD
  5
5FBF
331
AA18
  5
AD6A
331
A931
  5
AD5E
331
A84B
  5
AC4B
331
A765
  5
AB29
331
974D
  5
A48B
331
9717
  5
A268
331
48CD
  5
81D9
331
29A8
  5
8047
331
24C7
  5
5BF6
331
266D
  5
5AFB
331
A658
  5
AA5C
331
A40C
  5
A932
331
A25F
  5
A8FF
331
A0F1
  5
A849
331
9F24
  5
A765
331
9D9E
  5
A656
331
7CE4
  5
9E06
331
1FBE
  5
7488
331
AA19
  5
AD6B
331
A932
  5
AD5F
331
A84C
  5
AC4C
331
974E
  5
A4C6
331
972F
  5
A379
331
9718
  5
A269
331
81F4
  5
A0F1
331
29A9
  5
8049
331
2A30
  5
4E89
331
2B7F
  5
4C43
331
2794
  5
7F9B
331
2755
  5
7F72
331
25CF
  5
7ED7
331
2B1
  5
E89
331
A659
  5
AA5D
331
A52B
  5
A9DC
331
A40D
  5
A933
331
A260
  5
A900
331
A0F2
  5
A84A
331
9F25
  5
A766
331
9D9F
  5
A65B
331
7CE5
  5
2E07
331
602B
  5
9F0C
331
1FBF
  5
7BB3
331
7C47
  5
2B56
331
AA68
  5
B018
331
AA1A
  5
AD6C
331
A933
  5
AD61
331
A84D
  5
AC4F
331
99A5
  5
A56A
331
9730
  5
A3E5
331
9719
  5
A26A
331
4FB5
  5
825F
331
4C06
  5
8208
331
2795
  5
7FA0
331
25D0
  5
7ED8
331
A65A
  5
AA60
331
A52C
  5
A9DE
331
A40E
  5
A934
331
A261
  5
A901
331
A0F3
  5
A84B
331
9F26
  5
A767
331
9DA0
  5
A65C
331
7EC2
  5
7EA1
331
6113
  5
9F1F
331
602C
  5
9F0E
331
7C48
  5
2BCF
331
AB28
  5
B032
331
AA69
  5
B019
331
AA52
  5
AE47
331
AA1B
  5
AD6D
331
A934
  5
AD63
331
A84E
  5
AC50
331
99A6
  5
A577
331
9731
  5
A3E6
331
971A
  5
A26D
331
8255
  5
A16F
331
813F
  5
A0EE
331
4FB6
  5
8260
331
B2D8
  5
BE9D
331
A65B
  5
AA61
331
A52D
  5
A9DF
331
A5D4
  5
314D
331
A40F
  5
A935
331
A262
  5
A902
331
A4C6
  5
3144
331
A0F4
  5
A84C
331
9E90
  5
A70F
331
A20B
  5
7ED0
331
9DA1
  5
A65D
331
9CBA
  5
396
331
7DBD
  5
305D
331
7C02
  5
9F6A
331
7C49
  5
9E91
331
6114
  5
9F20
331
7D4E
  5
2E29
331
21B6
  5
7D28
331
602D
  5
9F0F
331
AC50
  5
B12F
331
AB29
  5
B033
331
AA6A
  5
B01A
331
AA53
  5
AE48
331
AA1C
  5
AD6E
331
A935
  5
AD66
331
A84F
  5
AC51
331
A8BE
  5
7BEE
331
9732
  5
A3E7
331
971B
  5
A27A
331
8256
  5
A189
331
8140
  5
A0EF
331
4FB7
  5
8261
331
5854
  5
7EF2
331
4DD8
  5
8257
331
4A19
  5
81F1
331
287E
  5
7FBF
331
255
  5
727
331
B2D9
  5
BE9E
331
A65C
  5
AA62
331
A52E
  5
A9E0
331
A5D5
  5
9726
331
A410
  5
A936
331
A263
  5
A919
331
A3E9
  5
A0D6
331
A4C7
  5
3148
331
A086
  5
9D37
331
A20C
  5
7ED1
331
9E91
  5
A710
331
9DA2
  5
A65E
331
A01F
  5
3068
331
7C03
  5
9F89
331
7C4A
  5
9E90
331
7CA9
  5
9E1E
331
6115
  5
9F21
331
7DBE
  5
305E
331
AB2A
  5
B034
331
AA6B
  5
B01B
331
AA1D
  5
AD6F
331
A936
  5
AD67
331
A850
  5
AC52
331
A8BF
  5
7BE3
331
9782
  5
A513
331
9733
  5
A3E8
331
971C
  5
A287
331
7FB2
  5
FE4
331
54B7
  5
974D
331
4FB8
  5
82F4
331
564E
  5
306C
331
4DD9
  5
8258
331
2759
  5
7F80
331
B2DA
  5
BE9F
331
A65D
  5
AA63
331
A52F
  5
AA05
331
A411
  5
A937
331
A4C8
  5
9732
331
A264
  5
A91A
331
9E92
  5
A750
331
A020
  5
9D33
331
A20D
  5
9CBE
331
7C04
  5
9F8A
331
7CAA
  5
9E0F
331
7DBF
  5
9D3B
331
2406
  5
7E20
331
AD68
  5
B354
331
AC52
  5
B134
331
AB2B
  5
B0C1
331
AA1E
  5
AD70
331
A851
  5
AC54
331
9A3F
  5
3239
331
99A9
  5
A584
331
9A10
  5
322B
331
9734
  5
A3E9
331
971D
  5
A294
331
54B8
  5
9780
331
4DDA
  5
8259
331
2917
  5
803B
331
B2DB
  5
BEAC
331
A65E
  5
AA64
331
A530
  5
AA16
331
A412
  5
A946
331
A4C9
  5
9731
331
A20E
  5
9CBD
331
A324
  5
7EA0
331
9E93
  5
A751
331
A021
  5
3065
331
7C05
  5
9F8D
331
7DC0
  5
9D3C
331
2407
  5
7E21
331
7E1F
  5
EE8
331
AE48
  5
B6D6
331
AD69
  5
B367
331
AC53
  5
B2CA
331
AB2C
  5
B0E6
331
AA56
  5
AE4B
331
AA1F
  5
AD71
331
A919
  5
AC55
331
A71D
  5
7C9C
331
99AA
  5
A593
331
9A87
  5
7ED9
331
9ACE
  5
4BBA
331
998B
  5
A52F
331
9735
  5
A3EA
331
971E
  5
A2B2
331
54B9
  5
9781
331
4DDB
  5
825A
331
B2DC
  5
BEB9
331
B295
  5
BACB
331
B116
  5
BAC9
331
A531
  5
AA17
331
A413
  5
A953
331
9E94
  5
A752
331
A325
  5
A0D5
331
B5BA
  5
4C7
331
7C06
  5
9F8E
331
AFB8
  5
B767
331
AD6A
  5
B368
331
AC54
  5
B2CB
331
AB2D
  5
B0E8
331
AA57
  5
AE4D
331
AA20
  5
AD72
331
A91A
  5
AC56
331
A834
  5
AB2B
331
99AB
  5
A5A0
331
998C
  5
A534
331
A7AD
  5
3153
331
971F
  5
A2BF
331
9736
  5
A3F8
331
7F3E
  5
A0E7
331
54BA
  5
9782
331
2919
  5
803D
331
B652
  5
C0E2
331
B2DD
  5
BEC6
331
B117
  5
BACA
331
A532
  5
AA18
331
A414
  5
A960
331
A326
  5
A91B
331
9E95
  5
A753
331
A1C1
  5
7EF1
331
B760
  5
37A
331
7C07
  5
9F91
331
7E21
  5
9D32
331
B020
  5
B924
331
AE4A
  5
B758
331
AD6B
  5
B38D
331
AC55
  5
B2D0
331
AB2E
  5
B0E9
331
AA21
  5
AD73
331
A91B
  5
AC59
331
A835
  5
AB2C
331
99AC
  5
A5AD
331
A7AE
  5
8256
331
998D
  5
A535
331
9786
  5
A52B
331
9737
  5
A3F9
331
5742
  5
9C4A
331
54BB
  5
9783
331
291A
  5
803E
331
4787
  5
5D79
331
26D6
  5
7F42
331
B7D8
  5
C23F
331
B2DE
  5
BED5
331
A533
  5
AA19
331
A327
  5
A91C
331
7E22
  5
9D18
331
B021
  5
B931
331
AE4B
  5
B759
331
AD6C
  5
B3DE
331
AD55
  5
B2E5
331
AC56
  5
B2D1
331
AB2F
  5
B0EA
331
AA59
  5
AE54
331
AA22
  5
AD74
331
A91C
  5
AC5A
331
A836
  5
AB2D
331
A750
  5
AA65
331
A7AF
  5
3227
331
99AD
  5
A5BA
331
998E
  5
A536
331
9738
  5
A407
331
8274
  5
7BCD
331
BDB0
  5
C4B7
331
5743
  5
9C4B
331
291B
  5
8040
331
26D7
  5
7F43
331
1B4
  5
318
331
B7D9
  5
C240
331
B2DF
  5
BF38
331
B30E
  5
BD0C
331
A534
  5
AA1A
331
A328
  5
A91D
331
B022
  5
B967
331
AE4C
  5
B75B
331
AD6D
  5
B3EB
331
AD56
  5
B2E6
331
AC57
  5
B2D2
331
AB30
  5
B0EB
331
AA5A
  5
AE57
331
AA23
  5
AD75
331
A91D
  5
AC5B
331
A837
  5
AB2E
331
A751
  5
AA66
331
99AE
  5
A5C7
331
998F
  5
A537
331
9910
  5
A52C
331
9739
  5
A408
331
8275
  5
7BCE
331
BDB1
  5
C4C1
331
5744
  5
9C5F
331
28AD
  5
7FE0
331
27DE
  5
7FA1
331
26D8
  5
7F44
331
B763
  5
C1B0
331
B2E0
  5
BF39
331
B30F
  5
BC9B
331
B11A
  5
BAD8
331
A535
  5
AA1B
331
A644
  5
7D2D
331
A329
  5
A91E
331
7D5E
  5
9F9E
331
B023
  5
B968
331
AE4D
  5
B75C
331
AD6E
  5
B3F8
331
AD57
  5
B2E7
331
AC58
  5
B2D3
331
AB31
  5
B116
331
AA5B
  5
AE59
331
AA24
  5
AD76
331
A91E
  5
AC5C
331
A838
  5
AB2F
331
A752
  5
AA67
331
99AF
  5
A5D4
331
9990
  5
A538
331
973A
  5
A409
331
8276
  5
8202
331
BE79
  5
FE7
331
5745
  5
9C7D
331
28AE
  5
7FE1
331
BAC8
  5
C37A
331
B764
  5
C1BD
331
B2E1
  5
BF3A
331
B11B
  5
BAE5
331
A536
  5
AA1C
331
A32A
  5
A91F
331
A645
  5
314C
331
B735
  5
74D
331
B024
  5
B969
331
AE4E
  5
B75F
331
AD6F
  5
B405
331
AD58
  5
B2E8
331
AC59
  5
B2D4
331
AB32
  5
B117
331
AA5C
  5
AE5A
331
AA25
  5
AD77
331
A91F
  5
AC5D
331
A996
  5
A1B4
331
A839
  5
AB30
331
A753
  5
AA68
331
9B1C
  5
4C06
331
9A95
  5
4B00
331
9991
  5
A539
331
9A4E
  5
323B
331
973B
  5
A40A
331
830E
  5
A1B2
331
8277
  5
8203
331
27E0
  5
7FA2
331
26DA
  5
7F45
331
25E
  5
744
331
BAC9
  5
C37B
331
B765
  5
C1CC
331
B2E2
  5
BF3B
331
B2C3
  5
BD1A
331
A537
  5
AA1D
331
A646
  5
A0EA
331
A4E0
  5
A96D
331
A32B
  5
A920
331
A0AF
  5
F7F
331
B025
  5
B96A
331
AE4F
  5
B760
331
AD70
  5
B524
331
AD59
  5
B2E9
331
AC5A
  5
B2D5
331
AB33
  5
B11A
331
AA5D
  5
AE5B
331
AA26
  5
AD78
331
A920
  5
AC5E
331
A997
  5
81DA
331
A83A
  5
AB31
331
A8B1
  5
7BCF
331
A754
  5
AA9B
331
9992
  5
A53A
331
9A20
  5
322D
331
973C
  5
A40B
331
BF3A
  5
C4D6
331
58EE
  5
9D38
331
25B5
  5
7ECE
331
4E0A
  5
314E
331
BACA
  5
C37C
331
B8AC
  5
C2DB
331
B2E3
  5
BF45
331
B2C4
  5
BD1B
331
B11D
  5
BB77
331
A647
  5
AA2A
331
A538
  5
AA1E
331
A32C
  5
A921
331
BAA3
  5
EB2
331
B026
  5
B96B
331
AE50
  5
B761
331
AD71
  5
B525
331
AD5A
  5
B2EA
331
AC5B
  5
B2D6
331
AB34
  5
B11B
331
AA5E
  5
AE5C
331
AA27
  5
AD79
331
A921
  5
AC5F
331
A83B
  5
AB32
331
A8B2
  5
8204
331
A755
  5
AAA8
331
9993
  5
A53B
331
973D
  5
A40C
331
BFDA
  5
C708
331
BF3B
  5
C4D8
331
BE7C
  5
C4C9
331
58EF
  5
9D39
331
57B0
  5
9CB9
331
28B1
  5
7FE4
331
29E7
  5
4EFF
331
262D
  5
7ED5
331
B8AD
  5
C2DC
331
B738
  5
C17B
331
B2E4
  5
BF46
331
B2C5
  5
BD25
331
B11E
  5
BB7A
331
A648
  5
AA2B
331
A539
  5
AA1F
331
A6AF
  5
314F
331
A32D
  5
A922
331
B767
  5
4FA
331
B027
  5
B96C
331
AE51
  5
B763
331
AD72
  5
B526
331
AD5B
  5
B2EB
331
AC5C
  5
B2D7
331
AB35
  5
B11C
331
AA5F
  5
AE5D
331
AB16
  5
AE4A
331
AA28
  5
AD7A
331
A922
  5
AC60
331
A83C
  5
AB33
331
A756
  5
AAB5
331
A7BD
  5
7C08
331
9994
  5
A53C
331
973E
  5
A40D
331
C240
  5
C71C
331
BFDB
  5
C709
331
BE7D
  5
C4CB
331
58F0
  5
9D3A
331
48BE
  5
813C
331
BAA5
  5
C354
331
B739
  5
C17C
331
B2E5
  5
BF47
331
B2C6
  5
BD32
331
B11F
  5
BBC8
331
A649
  5
AA2C
331
A53A
  5
AA20
331
A32E
  5
A923
331
A2BF
  5
3071
331
BB6B
  5
EDA
331
B028
  5
B96E
331
AE52
  5
B765
331
AD73
  5
B527
331
AD5C
  5
B2EC
331
AC5D
  5
B2D8
331
AB36
  5
B11E
331
AA60
  5
AE5E
331
AA29
  5
AD7B
331
A923
  5
AC61
331
A83D
  5
AB34
331
A757
  5
AAC2
331
973F
  5
A40E
331
5194
  5
82F5
331
4B36
  5
81FE
331
48BF
  5
8141
331
28B3
  5
7FE5
331
27E4
  5
7FC0
331
BAA6
  5
C355
331
B769
  5
C229
331
B38D
  5
C024
331
B2E6
  5
BF54
331
B2C7
  5
BD3F
331
B120
  5
BC7E
331
A64A
  5
AA2D
331
A53B
  5
AA21
331
A32F
  5
A924
331
B029
  5
B96F
331
AD74
  5
B53F
331
AD5D
  5
B2ED
331
AC5E
  5
B2D9
331
AB37
  5
B11F
331
AB18
  5
B01C
331
AA61
  5
AE5F
331
AA2A
  5
AD7C
331
A924
  5
AC62
331
A83E
  5
AB35
331
A758
  5
AB1C
331
9996
  5
A53D
331
C08C
  5
321D
331
4B37
  5
81FF
331
48C0
  5
8143
331
2B31
  5
80A2
331
28B4
  5
7FEE
331
B76A
  5
C22A
331
B958
  5
3053
331
B2E7
  5
BF61
331
B2C8
  5
BD4C
331
B121
  5
BC88
331
A64B
  5
AA2E
331
A53C
  5
AA25
331
A3F7
  5
7E88
331
B70C
  5
74E
331
B02A
  5
B97C
331
AE54
  5
B76B
331
B00B
  5
B679
331
AD75
  5
B54C
331
AD5E
  5
B2EE
331
AC5F
  5
B2DA
331
AB38
  5
B120
331
AB19
  5
B01D
331
AA62
  5
B012
331
AA2B
  5
AD9B
331
A925
  5
AC63
331
A83F
  5
AB36
331
A759
  5
AB1D
331
9AA3
  5
4B33
331
9A5C
  5
4AFE
331
4B38
  5
8200
331
48C1
  5
8150
331
28B5
  5
8022
331
27E6
  5
7FDB
331
BAA8
  5
C378
331
B76B
  5
C22B
331
B70D
  5
C0EF
331
B5C6
  5
C0BC
331
B2E8
  5
BF6E
331
B2C9
  5
BD59
331
B122
  5
BC8A
331
A64C
  5
AA2F
331
A53D
  5
AA26
331
B02B
  5
B989
331
AE55
  5
B76C
331
AD76
  5
B5C6
331
AD5F
  5
B2EF
331
AC60
  5
B2DC
331
AB39
  5
B123
331
AB1A
  5
B022
331
AA63
  5
B013
331
AA2C
  5
ADB2
331
A926
  5
AC64
331
AA05
  5
5D5A
331
A840
  5
AB37
331
A7F9
  5
AB2A
331
A75A
  5
AB1E
331
C37A
  5
C726
331
5616
  5
99AA
331
4B39
  5
8201
331
48C2
  5
8151
331
2B33
  5
80A3
331
27E7
  5
7FDC
331
B5C7
  5
C0BD
331
B2E9
  5
BF7D
331
B2CA
  5
BDAE
331
B123
  5
BC8B
331
B80B
  5
2E0B
331
A64D
  5
AA30
331
A53E
  5
AA27
331
B02C
  5
B996
331
B00D
  5
B7D9
331
AE56
  5
B779
331
AD77
  5
B5C7
331
AD60
  5
B2F0
331
AC61
  5
B2DD
331
AB3A
  5
B124
331
AB1B
  5
B025
331
AA64
  5
B014
331
AA2D
  5
ADB4
331
A927
  5
AC65
331
A841
  5
AB38
331
A75B
  5
AB1F
331
C4C1
  5
C733
331
C37B
  5
C727
331
C186
  5
C715
331
BDBB
  5
C4C2
331
5617
  5
99AB
331
5248
  5
9729
331
48C3
  5
8152
331
2B34
  5
80A4
331
2926
  5
5894
331
BD8D
  5
FDA
331
BC57
  5
C3D5
331
B5C8
  5
C0BE
331
BCF6
  5
FA1
331
B2EA
  5
BFD8
331
B2CB
  5
BDAF
331
B124
  5
BC8C
331
A64E
  5
AA31
331
A53F
  5
AA28
331
B521
  5
28A
331
B02D
  5
B9A3
331
B00E
  5
B7EC
331
AD78
  5
B5C8
331
AD61
  5
B2F2
331
AC62
  5
B2E0
331
AB3B
  5
B125
331
AB1C
  5
B026
331
AA65
  5
B015
331
AA2E
  5
ADB5
331
A928
  5
AC8C
331
A842
  5
AB39
331
A75C
  5
AB20
331
C4C2
  5
C734
331
C42B
  5
C72E
331
C37C
  5
C728
331
C187
  5
C716
331
BDBC
  5
C4C3
331
5618
  5
99AC
331
5249
  5
972A
331
2B35
  5
80A5
331
B5C9
  5
C0C8
331
B2EB
  5
BFD9
331
B2CC
  5
BDB0
331
B125
  5
BC8D
331
A64F
  5
AA32
331
B02E
  5
BAB2
331
B00F
  5
B80B
331
AE58
  5
B793
331
AD79
  5
B5C9
331
AD62
  5
B2F4
331
AC63
  5
B2E1
331
AB3C
  5
B126
331
AB1D
  5
B027
331
AA66
  5
B016
331
AA2F
  5
ADB8
331
A929
  5
ACA9
331
A843
  5
AB3E
331
A75D
  5
AB21
331
C57A
  5
C743
331
C4C3
  5
C735
331
C42C
  5
C72F
331
C37D
  5
C729
331
C2E6
  5
C721
331
C200
  5
810C
331
5619
  5
99AD
331
524A
  5
972B
331
2B36
  5
80A9
331
BD8F
  5
C4B5
331
BCF8
  5
C42C
331
B80E
  5
C268
331
B2EC
  5
BFDA
331
B2CD
  5
BDB1
331
B126
  5
BC8E
331
BB33
  5
EC6
331
B02F
  5
BAB3
331
B010
  5
B80F
331
AE59
  5
B7A0
331
AD7A
  5
B5CA
331
AD63
  5
B301
331
AC64
  5
B2E4
331
AB3D
  5
B127
331
AB1E
  5
B028
331
AA67
  5
B017
331
AA30
  5
ADB9
331
A92A
  5
ACB6
331
A844
  5
AB7E
331
A75E
  5
AB22
331
C2E7
  5
C723
331
BE9D
  5
C4CD
331
C718
  5
ED3
331
5819
  5
9CD0
331
524B
  5
972C
331
BD90
  5
C4B6
331
BCF9
  5
C42D
331
BC6A
  5
C41E
331
B80F
  5
C275
331
B524
  5
C031
331
B2ED
  5
BFDB
331
B2CE
  5
BDBB
331
B030
  5
BAB4
331
B011
  5
B810
331
AE5A
  5
B7AD
331
AD64
  5
B30E
331
AD7B
  5
B12B
331
AB1F
  5
B029
331
AB3E
  5
AE49
331
AA31
  5
AE42
331
A92B
  5
ACC3
331
A845
  5
AB8D
331
A75F
  5
AB23
331
C4C5
  5
C736
331
C719
  5
9D36
331
C202
  5
C717
331
BF45
  5
C4DA
331
BE9E
  5
C4D0
331
C2B9
  5
AE52
331
C738
  5
10E1
331
581A
  5
9CD1
331
B810
  5
C282
331
B525
  5
C040
331
B2EE
  5
BFE5
331
B2CF
  5
BDBC
331
B128
  5
BCA8
331
B031
  5
BAC7
331
B012
  5
B811
331
AE5B
  5
B7BA
331
AD65
  5
B30F
331
AB20
  5
B02A
331
AA32
  5
AE43
331
A92C
  5
AD59
331
A846
  5
AB9C
331
C203
  5
C718
331
C0BC
  5
C70E
331
BFE5
  5
C70A
331
BF46
  5
C4DC
331
C71A
  5
7ECF
331
C739
  5
321E
331
581B
  5
9CD2
331
B811
  5
C2B9
331
B526
  5
C06D
331
B2EF
  5
BFE6
331
B2D0
  5
BDEA
331
B129
  5
BCB5
331
B032
  5
BAC8
331
B013
  5
B83E
331
AD66
  5
B34F
331
AB21
  5
B02B
331
AA33
  5
AE46
331
A92D
  5
AD5A
331
A847
  5
ABAE
331
C4C7
  5
C737
331
C71B
  5
9CCF
331
C2BB
  5
C71D
331
C0BD
  5
C70F
331
BFE6
  5
C70B
331
C352
  5
B133
331
581C
  5
9CD3
331
B527
  5
C08C
331
B2F0
  5
C00A
331
B2D1
  5
BDF7
331
B12A
  5
BCF8
331
B014
  5
B84B
331
B033
  5
B652
331
AD67
  5
B352
331
AB22
  5
B02C
331
A92E
  5
AD5B
331
C73B
  5
B6BA
331
C0BE
  5
C710
331
C71C
  5
FB9
331
BB77
  5
C394
331
B2D2
  5
BE11
331
B7D4
  5
2E0A
331
B015
  5
B858
331
AD41
  5
B12C
331
AB23
  5
B02D
331
AA16
  5
AD68
331
A92F
  5
AD5C
331
C4C9
  5
C738
331
C354
  5
C724
331
C71D
  5
9C49
331
BB78
  5
C3A1
331
B756
  5
C186
331
B717
  5
C0FE
331
B2F2
  5
C017
331
B2D3
  5
BE20
331
B12C
  5
BD0D
331
45B
  5
FDC
331
B016
  5
B865
331
AC4B
  5
B129
331
AB24
  5
B02E
331
AA17
  5
AD69
331
C73D
  5
B6AD
331
C355
  5
C725
331
C3FC
  5
B6C7
331
BF0B
  5
31B7
331
C71E
  5
FE3
331
7C9
  5
3048
331
BB79
  5
C3AE
331
B964
  5
C2E6
331
543
  5
10DF
331
B718
  5
C179
331
B2D4
  5
BE7A
331
B12D
  5
BD0E
331
B757
  5
1EA
331
B017
  5
B8A9
331
AC4C
  5
B12A
331
AB25
  5
B02F
331
C73E
  5
B756
331
C4CB
  5
C739
331
C71F
  5
9785
331
C228
  5
8123
331
C141
  5
5F98
331
C05A
  5
321A
331
BFB3
  5
3211
331
BB7A
  5
C3C8
331
B965
  5
C2E7
331
B7D7
  5
C22C
331
B719
  5
C17A
331
B2D5
  5
BE7B
331
B12E
  5
BD19
331
BAB4
  5
EC0
331
B018
  5
B8AA
331
AE42
  5
B5D7
331
AB26
  5
B030
331
C73F
  5
B719
331
C3FE
  5
C72A
331
C495
  5
BB76
331
BF0D
  5
C4D2
331
C720
  5
10CE
331
BE56
  5
FE6
331
B966
  5
C2E8
331
B2D6
  5
BE7C
331
2E7
  5
EA1
331
B019
  5
B8AB
331
AE43
  5
B646
331
AB27
  5
B031
331
C740
  5
BB79
331
C4CD
  5
C73A
331
C3FF
  5
C72B
331
C143
  5
C711
331
C05C
  5
C70C
331
BFB5
  5
C4DE
331
BF0E
  5
C4D4
331
C721
  5
974E
331
5948
  5
305F
331
755
  5
2C82
331
B967
  5
C2F5
331
B2D7
  5
BE7D
331
348
  5
EB3
331
B01A
  5
B8AC
331
AC4F
  5
B12E
331
C741
  5
BB75
331
C497
  5
C730
331
C22B
  5
C719
331
C144
  5
C712
331
C05D
  5
C70D
331
BFB6
  5
C57A
331
BE58
  5
C4C5
331
C722
  5
10D1
331
BB4E
  5
C37D
331
CCB
  5
4EFE
331
B75B
  5
C187
331
B899
  5
2E2C
331
B01B
  5
B8AD
331
C742
  5
BB78
331
C498
  5
C731
331
C22C
  5
C71A
331
BE59
  5
C4C7
331
C723
  5
9727
331
594A
  5
7F46
331
1FC0
  5
7BB4
331
BB4F
  5
C387
331
B75C
  5
C189
331
B646
  5
C0D5
331
BC7D
  5
7EC2
331
491
  5
10CA
331
B01C
  5
B8F0
331
AE46
  5
B686
331
C743
  5
BAFF
331
C4D0
  5
C73B
331
C724
  5
10DE
331
1FC1
  5
7BCB
331
B96A
  5
3050
331
B01D
  5
B8FD
331
AE47
  5
B693
331
C725
  5
825C
331
BD0E
  5
C43A
331
20F0
  5
7CE2
331
B96B
  5
C32B
331
BC30
  5
7EA2
331
B01E
  5
B90A
331
AFB7
  5
B786
331
C4D2
  5
C73C
331
C2CE
  5
C71E
331
C726
  5
B2C9
331
C178
  5
6104
331
21B8
  5
7D29
331
B96C
  5
C338
331
B89D
  5
C2BA
331
B75F
  5
C1A3
331
CCF
  5
50B1
331
B01F
  5
B917
331
C727
  5
B132
331
C41D
  5
B6A0
331
C708
  5
11E4
331
BFC3
  5
3212
331
7E2
  5
305B
331
B89E
  5
C2D9
331
BDAF
  5
FDB
331
C728
  5
B2C8
331
C4D4
  5
C73D
331
C709
  5
9F1C
331
C377
  5
B130
331
C2D8
  5
AE50
331
2408
  5
7E22
331
5BF5
  5
9DA2
331
206C
  5
7C0B
331
1FC5
  5
7BCC
331
BD19
  5
C447
331
BC8A
  5
C41F
331
B96E
  5
C345
331
B89F
  5
C2DA
331
CF1
  5
5949
331
C729
  5
B131
331
C17B
  5
C713
331
C70A
  5
420
331
7BD0
  5
9F1D
331
BD1A
  5
C454
331
BC8B
  5
C420
331
5AE7
  5
9D96
331
2409
  5
7E85
331
C72A
  5
AE56
331
C4D6
  5
C73E
331
C420
  5
C72C
331
C17C
  5
C714
331
C70B
  5
9F0D
331
BF37
  5
3209
331
5DF5
  5
9E0E
331
5CF6
  5
9E08
331
7C08
  5
15CC
331
5BF7
  5
9DB2
331
5AE8
  5
9D99
331
B24
  5
4BBB
331
766
  5
2D23
331
BD1B
  5
C461
331
BC8C
  5
C421
331
BAC7
  5
C379
331
71F
  5
112C
331
C72B
  5
C722
331
C421
  5
C72D
331
C2DB
  5
C71F
331
C70C
  5
72F
331
9E08
  5
9F98
331
7BB3
  5
9EA5
331
603C
  5
9F19
331
240B
  5
7E86
331
7C09
  5
26E2
331
5CF7
  5
9E0A
331
5BF8
  5
9DBF
331
5AE9
  5
9D9A
331
BC8D
  5
C42B
331
37A
  5
ED0
331
C72C
  5
AE51
331
C4D8
  5
C73F
331
C2DC
  5
C720
331
C70D
  5
9E93
331
9E09
  5
A65F
331
9EF8
  5
9F9D
331
9D32
  5
A649
331
7C0A
  5
9EFC
331
5F26
  5
9E82
331
5CF8
  5
9E0B
331
20F7
  5
7CE3
331
5BF9
  5
9DCC
331
5AEA
  5
9D9C
331
729
  5
11F8
331
C72D
  5
AE55
331
C70E
  5
E04
331
9E0A
  5
A66C
331
9D33
  5
A64A
331
9EF9
  5
EA7
331
7C0B
  5
9EFB
331
5DF8
  5
9E2B
331
5CF9
  5
9E0C
331
5BFA
  5
9DFC
331
5AEB
  5
9D9D
331
8151
  5
320C
331
7F4B
  5
30EA
331
C4DA
  5
C740
331
C23F
  5
C71B
331
C70F
  5
9E7E
331
C72E
  5
8140
331
9E0B
  5
A679
331
9F89
  5
9F9F
331
9D34
  5
A64B
331
5DF9
  5
9E7F
331
5CFA
  5
9E0D
331
20F9
  5
7D27
331
5AEC
  5
9D9E
331
2023
  5
7BEF
331
7ECD
  5
A0D4
331
7F4C
  5
3142
331
C72F
  5
813B
331
C4B4
  5
BAF2
331
C710
  5
E8A
331
9F8A
  5
A768
331
9E0C
  5
A686
331
9D35
  5
A650
331
5F29
  5
9E92
331
5DFA
  5
9E80
331
2201
  5
7D2E
331
2083
  5
7C48
331
5AED
  5
9D9F
331
2024
  5
7C03
331
B29
  5
4BE1
331
7DE0
  5
EB0
331
7F4D
  5
9786
331
C4DC
  5
C741
331
C711
  5
9E09
331
C730
  5
813F
331
9F8B
  5
A777
331
9E0D
  5
A693
331
9D36
  5
A651
331
9B37
  5
4C41
331
5F2A
  5
9E94
331
5DFB
  5
9E81
331
2084
  5
7C82
331
2025
  5
7C07
331
59F7
  5
9D3D
331
1E9E
  5
5C89
331
7C5D
  5
4F5
331
803D
  5
A0EB
331
7F4E
  5
99A9
331
C731
  5
8124
331
C712
  5
EA4
331
9F8C
  5
A784
331
9E0E
  5
A6FA
331
9D37
  5
A652
331
5F2B
  5
9E95
331
23A2
  5
7D76
331
59F8
  5
9D3F
331
2203
  5
7D5C
331
4C7
  5
10D0
331
9720
  5
A2C0
331
8312
  5
A1C1
331
82BB
  5
5E3F
331
C4DE
  5
C742
331
C4B7
  5
C732
331
C713
  5
9DA3
331
C732
  5
60BB
331
28A
  5
761
331
9F8D
  5
A79E
331
A2C0
  5
9C48
331
5F2C
  5
9E96
331
23A3
  5
7DA3
331
59F9
  5
9D40
331
77E
  5
2E28
331
421
  5
FAA
331
7CBE
  5
745
331
9740
  5
A40F
331
9721
  5
A322
331
7EF1
  5
FD7
331
C733
  5
6FD8
331
C714
  5
EAA
331
A330
  5
A925
331
9F8E
  5
A813
331
A065
  5
4AFF
331
9B52
  5
7BD0
331
7D26
  5
9F9B
331
59FA
  5
9D76
331
1EC9
  5
5CF7
331
7D75
  5
3055
331
CFC
  5
5A6A
331
9920
  5
A52D
331
9741
  5
A410
331
9722
  5
A327
331
970B
  5
A1D0
331
8314
  5
A1C2
331
8050
  5
10D2
331
7EF2
  5
FD8
331
C715
  5
9D9B
331
C734
  5
6065
331
A331
  5
A926
331
9F8F
  5
A834
331
7D76
  5
3057
331
59FB
  5
9D95
331
23A5
  5
7DBD
331
6065
  5
11F0
331
7FF
  5
3062
331
7BE3
  5
1B5
331
9998
  5
A53E
331
9742
  5
A412
331
9723
  5
A32A
331
970C
  5
A20B
331
820F
  5
3216
331
7EF3
  5
99AF
331
7F72
  5
FD9
331
C735
  5
6C5E
331
C716
  5
EBA
331
A332
  5
A927
331
9F90
  5
A835
331
A0E6
  5
A0D0
331
9F19
  5
A754
331
5D31
  5
2C92
331
7E3D
  5
EC2
331
99B0
  5
A5D5
331
9743
  5
A413
331
9724
  5
A32B
331
970D
  5
A20D
331
8316
  5
A1CF
331
7EF4
  5
99AE
331
8052
  5
9714
331
8169
  5
7CDC
331
C717
  5
9D3E
331
C736
  5
10E2
331
27E8
  5
7FDE
331
2769
  5
7F7F
331
24AD
  5
7DC0
331
A333
  5
A928
331
A518
  5
A0E8
331
A0E7
  5
A83F
331
A255
  5
A0D3
331
9F91
  5
A836
331
9F1A
  5
A75B
331
9E7B
  5
2E2D
331
7C83
  5
9F97
331
6067
  5
80AA
331
23A7
  5
7DBE
331
504
  5
10D5
331
99B1
  5
A643
331
9A30
  5
3230
331
999A
  5
A53F
331
9744
  5
A414
331
9725
  5
A32C
331
970E
  5
A25B
331
8053
  5
9715
331
816A
  5
7CDF
331
C737
  5
321F
331
24AE
  5
7E87
331
A540
  5
AA29
331
A256
  5
7EDA
331
A519
  5
7E1F
331
A0E8
  5
A840
331
A1CF
  5
7ED2
331
9F92
  5
A837
331
9F1B
  5
A75C
331
9D3D
  5
740
331
7BC7
  5
9F22
331
2467
  5
7E89
331
5D33
  5
8043
331
2219
  5
7D61
331
744
  5
2B3A
331
999B
  5
A540
331
9726
  5
A32D
331
970F
  5
A25C
331
816B
  5
825E
331
8318
  5
810B
331
8054
  5
31B6
331
2665
  5
7F0B
331
A650
  5
AA33
331
A257
  5
A851
331
A0E9
  5
A841
331
A1D0
  5
9CCB
331
A48B
  5
314A
331
9F1C
  5
A75D
331
9F93
  5
A838
331
9D3E
  5
A653
331
7E11
  5
9FF9
331
7CDC
  5
9F99
331
7D2B
  5
3040
331
7BC8
  5
9F23
331
23A9
  5
7DED
331
20EC
  5
7CE0
331
5F62
  5
283D
331
7C1E
  5
348
331
999C
  5
A541
331
9727
  5
A332
331
9710
  5
A25D
331
816C
  5
825D
331
821B
  5
10F6
331
2666
  5
7F25
331
270D
  5
59F9
331
25C7
  5
7ED3
331
A651
  5
AA52
331
A258
  5
A852
331
A0EA
  5
A842
331
9F94
  5
A839
331
A073
  5
4BBC
331
9F1D
  5
A75E
331
9D3F
  5
A654
331
7BC9
  5
9F24
331
215C
  5
7D12
331
7D2C
  5
3045
331
202E
  5
7C09
331
5B37
  5
3047
331
A6B0
  5
825B
331
9AB1
  5
4BAD
331
9747
  5
A439
331
9A6A
  5
4AFA
331
9728
  5
A333
331
9711
  5
A25E
331
821C
  5
1127
331
7F18
  5
F94
331
2A21
  5
809C
331
2667
  5
7F40
331
292
  5
E7F
331
A652
  5
AA53
331
A259
  5
A861
331
A0EB
  5
A843
331
9F95
  5
A83A
331
9F1E
  5
A75F
331
7BCA
  5
9F25
331
7D2D
  5
9DA1
331
5F64
  5
80A1
331
247A
  5
7E8A
331
CBC
  5
4C42
331
5C3F
  5
2E22
331
A760
  5
AB24
331
9748
  5
A448
331
9729
  5
A334
331
9712
  5
A25F
331
7F98
  5
A0E9
331
821D
  5
8209
331
A653
  5
AA56
331
A407
  5
A929
331
A25A
  5
A86E
331
A0EC
  5
A844
331
9F96
  5
A83D
331
9F1F
  5
A760
331
9E80
  5
A70D
331
7D2E
  5
9DA0
331
7C41
  5
9F92
331
7BCB
  5
9F26
331
7C88
  5
2C89
331
247B
  5
7E8B
331
5B39
  5
7FDF
331
2030
  5
7C47
331
1FB9
  5
5DF9
331
5E66
  5
2C48
331
A761
  5
AB25
331
999F
  5
A550
331
9980
  5
A52E
331
9749
  5
A455
331
972A
  5
A341
331
9713
  5
A260
331
821E
  5
8255
331
2A23
  5
809D
331
1F5
  5
4F3
331
A654
  5
AA57
331
A408
  5
A92E
331
A25B
  5
A87B
331
A0ED
  5
A845
331
A379
  5
30A6
331
9F20
  5
A761
331
9F97
  5
A83E
331
9E81
  5
A70E
331
7D96
  5
304C
331
7C42
  5
9F95
331
7BCC
  5
9F27
331
7C89
  5
2C8A
331
5C41
  5
8023
331
CBE
  5
4C46
331
247C
  5
7E8C
331
8DF
  5
314B
331
A848
  5
ABAF
331
A762
  5
AB26
331
99A0
  5
A55D
331
974A
  5
A462
331
972B
  5
A34E
331
9714
  5
A261
  0
XRECORD
  5
D84
102
{ACAD_REACTORS
330
E1
102
}
330
E1
100
AcDbXrecord
280
     1
340
1B
  0
XRECORD
  5
D86
102
{ACAD_REACTORS
330
E3
102
}
330
E3
100
AcDbXrecord
280
     1
340
23
  0
LAYOUT
  5
22
102
{ACAD_XDICTIONARY
360
C762
102
}
102
{ACAD_REACTORS
330
1A
102
}
330
1A
100
AcDbPlotSettings
  1

  2
NEC MultiWriter 2250
  4
A4
  6

 40
5.873749732971191
 41
5.873747825622557
 42
5.873748779296875
 43
5.873748779296875
 44
209.8040008544922
 45
296.9259948730469
 46
0.0
 47
0.0
 48
0.0
 49
0.0
140
0.0
141
0.0
142
1.0
143
20.43075394308488
 70
 11952
 72
     1
 73
     1
 74
     0
  7
nec-mw2250全細線.ctb
 75
     0
147
0.0489458197571053
148
-7023.221482739531
149
864.3427771606072
100
AcDbLayout
  1
Model
 70
     1
 71
     0
 10
0.0
 20
0.0
 11
12.0
 21
9.0
 12
0.0
 22
0.0
 32
0.0
 14
0.0
 24
0.0
 34
0.0
 15
0.0
 25
0.0
 35
0.0
146
0.0
 13
0.0
 23
0.0
 33
0.0
 16
1.0
 26
0.0
 36
0.0
 17
0.0
 27
1.0
 37
0.0
 76
     0
330
1F
331
C6DD
1001
ACAD_PSEXT
1000
NEC MultiWriter 2250
1000
NEC MultiWriter 2250
1000
LPT1:
1000

1070
     0
  0
LAYOUT
  5
1E
102
{ACAD_XDICTIONARY
360
C760
102
}
102
{ACAD_REACTORS
330
1A
102
}
330
1A
100
AcDbPlotSettings
  1

  2
NEC MultiWriter 2250
  4

  6

 40
0.0
 41
0.0
 42
0.0
 43
0.0
 44
0.0
 45
0.0
 46
0.0
 47
0.0
 48
0.0
 49
0.0
140
0.0
141
0.0
142
1.0
143
1.0
 70
   688
 72
     0
 73
     0
 74
     5
  7
nec-mw2250全細線.ctb
 75
    16
147
1.0
148
0.0
149
0.0
100
AcDbLayout
  1
ﾚｲｱｳﾄ1
 70
     1
 71
     1
 10
0.0
 20
0.0
 11
420.0
 21
297.0
 12
0.0
 22
0.0
 32
0.0
 14
1.000000000000000E+20
 24
1.000000000000000E+20
 34
1.000000000000000E+20
 15
-1.000000000000000E+20
 25
-1.000000000000000E+20
 35
-1.000000000000000E+20
146
0.0
 13
0.0
 23
0.0
 33
0.0
 16
1.0
 26
0.0
 36
0.0
 17
0.0
 27
1.0
 37
0.0
 76
     0
330
1B
  0
LAYOUT
  5
26
102
{ACAD_XDICTIONARY
360
C764
102
}
102
{ACAD_REACTORS
330
1A
102
}
330
1A
100
AcDbPlotSettings
  1

  2
NEC MultiWriter 2250
  4

  6

 40
0.0
 41
0.0
 42
0.0
 43
0.0
 44
0.0
 45
0.0
 46
0.0
 47
0.0
 48
0.0
 49
0.0
140
0.0
141
0.0
142
1.0
143
1.0
 70
   688
 72
     0
 73
     0
 74
     5
  7
nec-mw2250全細線.ctb
 75
    16
147
1.0
148
0.0
149
0.0
100
AcDbLayout
  1
ﾚｲｱｳﾄ2
 70
     1
 71
     2
 10
0.0
 20
0.0
 11
12.0
 21
9.0
 12
0.0
 22
0.0
 32
0.0
 14
0.0
 24
0.0
 34
0.0
 15
0.0
 25
0.0
 35
0.0
146
0.0
 13
0.0
 23
0.0
 33
0.0
 16
1.0
 26
0.0
 36
0.0
 17
0.0
 27
1.0
 37
0.0
 76
     0
330
23
  0
MATERIAL
  5
C6EA
102
{ACAD_XDICTIONARY
360
C76A
102
}
102
{ACAD_REACTORS
330
D88
102
}
330
D88
100
AcDbMaterial
  1
ByBlock
  0
MATERIAL
  5
C6E9
102
{ACAD_XDICTIONARY
360
C768
102
}
102
{ACAD_REACTORS
330
D88
102
}
330
D88
100
AcDbMaterial
  1
ByLayer
  0
MATERIAL
  5
C6EB
102
{ACAD_XDICTIONARY
360
C76C
102
}
102
{ACAD_REACTORS
330
D88
102
}
330
D88
100
AcDbMaterial
  1
Global
  0
MLINESTYLE
  5
18
102
{ACAD_REACTORS
330
17
102
}
330
17
100
AcDbMlineStyle
  2
STANDARD
 70
     0
  3

 62
   256
 51
90.0
 52
90.0
 71
     2
 49
0.5
 62
   256
  6
BYLAYER
 49
-0.5
 62
   256
  6
BYLAYER
  0
ACDBPLACEHOLDER
  5
F
102
{ACAD_REACTORS
330
E
102
}
330
E
  0
TABLESTYLE
  5
D8B
102
{ACAD_XDICTIONARY
360
C766
102
}
102
{ACAD_REACTORS
330
D8A
102
}
330
D8A
100
AcDbTableStyle
  3
Standard
 70
     0
 71
     0
 40
1.5
 41
1.5
280
     0
281
     0
  7
Standard
140
4.5
170
     2
 62
     0
 63
     7
283
     0
274
    -2
284
     1
 64
     0
275
    -2
285
     1
 65
     0
276
    -2
286
     1
 66
     0
277
    -2
287
     1
 67
     0
278
    -2
288
     1
 68
     0
279
    -2
289
     1
 69
     0
  7
Standard
140
6.0
170
     5
 62
     0
 63
     7
283
     0
274
    -2
284
     1
 64
     0
275
    -2
285
     1
 65
     0
276
    -2
286
     1
 66
     0
277
    -2
287
     1
 67
     0
278
    -2
288
     1
 68
     0
279
    -2
289
     1
 69
     0
  7
Standard
140
4.5
170
     5
 62
     0
 63
     7
283
     0
274
    -2
284
     1
 64
     0
275
    -2
285
     1
 65
     0
276
    -2
286
     1
 66
     0
277
    -2
287
     1
 67
     0
278
    -2
288
     1
 68
     0
279
    -2
289
     1
 69
     0
  0
VISUALSTYLE
  5
C6F2
102
{ACAD_REACTORS
330
C6EC
102
}
330
C6EC
100
AcDbVisualStyle
  2
2dWireframe
 70
     4
 71
     0
 72
     2
 73
     0
 90
        0
 40
-0.6
 41
-30.0
 62
     5
 63
     7
 74
     1
 91
        4
 64
     7
 65
   257
 75
     1
175
     1
 42
1.0
 92
        0
 66
   257
 43
1.0
 76
     1
 77
     6
 78
     2
 67
     7
 79
     5
170
     0
171
     0
290
     0
174
     0
 93
        1
 44
0.0
173
     0
291
     0
 45
0.0
1001
ACAD
1000
AcDbSavedByObjectVersion
1070
     0
  0
VISUALSTYLE
  5
C6F4
102
{ACAD_REACTORS
330
C6EC
102
}
330
C6EC
100
AcDbVisualStyle
  2
3D Hidden
 70
     6
 71
     1
 72
     2
 73
     2
 90
        0
 40
-0.6
 41
-30.0
 62
     5
 63
     7
 74
     2
 91
        2
 64
     7
 65
   257
 75
     2
175
     1
 42
40.0
 92
        0
 66
   257
 43
1.0
 76
     1
 77
     6
 78
     2
 67
     7
 79
     3
170
     0
171
     0
290
     0
174
     0
 93
        1
 44
0.0
173
     0
291
     0
 45
0.0
1001
ACAD
1000
AcDbSavedByObjectVersion
1070
     0
  0
VISUALSTYLE
  5
C6F3
102
{ACAD_REACTORS
330
C6EC
102
}
330
C6EC
100
AcDbVisualStyle
  2
3dWireframe
 70
     5
 71
     0
 72
     2
 73
     0
 90
        0
 40
-0.6
 41
-30.0
 62
     5
 63
     7
 74
     1
 91
        4
 64
     7
 65
   257
 75
     1
175
     1
 42
1.0
 92
        0
 66
   257
 43
1.0
 76
     1
 77
     6
 78
     2
 67
     7
 79
     5
170
     0
171
     0
290
     0
174
     0
 93
        1
 44
0.0
173
     0
291
     0
 45
0.0
1001
ACAD
1000
AcDbSavedByObjectVersion
1070
     0
  0
VISUALSTYLE
  5
C6F1
102
{ACAD_REACTORS
330
C6EC
102
}
330
C6EC
100
AcDbVisualStyle
  2
Basic
 70
     7
 71
     1
 72
     0
 73
     1
 90
        0
 40
-0.6
 41
-30.0
 62
     5
 63
     7
 74
     0
 91
        4
 64
     7
 65
   257
 75
     1
175
     1
 42
1.0
 92
        8
 66
     7
 43
1.0
 76
     1
 77
     6
 78
     2
 67
     7
 79
     5
170
     0
171
     0
290
     0
174
     0
 93
        1
 44
0.0
173
     0
291
     1
 45
0.0
1001
ACAD
1000
AcDbSavedByObjectVersion
1070
     0
  0
VISUALSTYLE
  5
C6F8
102
{ACAD_REACTORS
330
C6EC
102
}
330
C6EC
100
AcDbVisualStyle
  2
Brighten
 70
    12
 71
     2
 72
     2
 73
     0
 90
        0
 40
-0.6
 41
-30.0
 62
     5
 63
     7
 74
     1
 91
        4
 64
     7
 65
   257
 75
     1
175
     1
 42
1.0
 92
        8
 66
     7
 43
1.0
 76
     1
 77
     6
 78
     2
 67
     7
 79
     5
170
     0
171
     0
290
     0
174
     0
 93
        1
 44
50.0
173
     0
291
     1
 45
0.0
1001
ACAD
1000
AcDbSavedByObjectVersion
1070
     0
  0
VISUALSTYLE
  5
C6FC
102
{ACAD_REACTORS
330
C6EC
102
}
330
C6EC
100
AcDbVisualStyle
  2
ColorChange
 70
    16
 71
     2
 72
     2
 73
     3
 90
        0
 40
-0.6
 41
-30.0
 62
     5
 63
     8
 74
     1
 91
        4
 64
     7
 65
   257
 75
     1
175
     1
 42
1.0
 92
        8
 66
     8
 43
1.0
 76
     1
 77
     6
 78
     2
 67
     7
 79
     5
170
     0
171
     0
290
     0
174
     0
 93
        1
 44
0.0
173
     0
291
     1
 45
0.0
1001
ACAD
1000
AcDbSavedByObjectVersion
1070
     0
  0
VISUALSTYLE
  5
C6F5
102
{ACAD_REACTORS
330
C6EC
102
}
330
C6EC
100
AcDbVisualStyle
  2
Conceptual
 70
     9
 71
     3
 72
     2
 73
     0
 90
        0
 40
-0.6
 41
-30.0
 62
     5
 63
     7
 74
     2
 91
        2
 64
     7
 65
   257
 75
     1
175
     1
 42
40.0
 92
        8
 66
     7
 43
1.0
 76
     1
 77
     6
 78
     2
 67
     7
 79
     3
170
     0
171
     0
290
     0
174
     0
 93
        1
 44
0.0
173
     0
291
     0
 45
0.0
1001
ACAD
1000
AcDbSavedByObjectVersion
1070
     0
  0
VISUALSTYLE
  5
C6F7
102
{ACAD_REACTORS
330
C6EC
102
}
330
C6EC
100
AcDbVisualStyle
  2
Dim
 70
    11
 71
     2
 72
     2
 73
     0
 90
        0
 40
-0.6
 41
-30.0
 62
     5
 63
     7
 74
     1
 91
        4
 64
     7
 65
   257
 75
     1
175
     1
 42
1.0
 92
        8
 66
     7
 43
1.0
 76
     1
 77
     6
 78
     2
 67
     7
 79
     5
170
     0
171
     0
290
     0
174
     0
 93
        1
 44
-50.0
173
     0
291
     1
 45
0.0
1001
ACAD
1000
AcDbSavedByObjectVersion
1070
     0
  0
VISUALSTYLE
  5
C6FB
102
{ACAD_REACTORS
330
C6EC
102
}
330
C6EC
100
AcDbVisualStyle
  2
Facepattern
 70
    15
 71
     2
 72
     2
 73
     0
 90
        0
 40
-0.6
 41
-30.0
 62
     5
 63
     7
 74
     1
 91
        4
 64
     7
 65
   257
 75
     1
175
     1
 42
1.0
 92
        8
 66
     7
 43
1.0
 76
     1
 77
     6
 78
     2
 67
     7
 79
     5
170
     0
171
     0
290
     0
174
     0
 93
        1
 44
0.0
173
     0
291
     1
 45
0.0
1001
ACAD
1000
AcDbSavedByObjectVersion
1070
     0
  0
VISUALSTYLE
  5
C6ED
102
{ACAD_REACTORS
330
C6EC
102
}
330
C6EC
100
AcDbVisualStyle
  2
Flat
 70
     0
 71
     2
 72
     1
 73
     1
 90
        2
 40
-0.6
 41
30.0
 62
     5
 63
     7
 74
     0
 91
        4
 64
     7
 65
   257
 75
     1
175
     1
 42
1.0
 92
        8
 66
     7
 43
1.0
 76
     1
 77
     6
 78
     2
 67
     7
 79
     5
170
     0
171
     0
290
     0
174
     0
 93
       13
 44
0.0
173
     0
291
     1
 45
0.0
1001
ACAD
1000
AcDbSavedByObjectVersion
1070
     0
  0
VISUALSTYLE
  5
C6EE
102
{ACAD_REACTORS
330
C6EC
102
}
330
C6EC
100
AcDbVisualStyle
  2
FlatWithEdges
 70
     1
 71
     2
 72
     1
 73
     1
 90
        2
 40
-0.6
 41
30.0
 62
     5
 63
     7
 74
     1
 91
        4
 64
     7
 65
   257
 75
     1
175
     1
 42
1.0
 92
        0
 66
   257
 43
1.0
 76
     1
 77
     6
 78
     2
 67
     7
 79
     5
170
     0
171
     0
290
     0
174
     0
 93
       13
 44
0.0
173
     0
291
     1
 45
0.0
1001
ACAD
1000
AcDbSavedByObjectVersion
1070
     0
  0
VISUALSTYLE
  5
C6EF
102
{ACAD_REACTORS
330
C6EC
102
}
330
C6EC
100
AcDbVisualStyle
  2
Gouraud
 70
     2
 71
     2
 72
     2
 73
     1
 90
        2
 40
-0.6
 41
30.0
 62
     5
 63
     7
 74
     0
 91
        4
 64
     7
 65
   257
 75
     1
175
     1
 42
1.0
 92
        0
 66
     7
 43
1.0
 76
     1
 77
     6
 78
     2
 67
     7
 79
     5
170
     0
171
     0
290
     0
174
     0
 93
       13
 44
0.0
173
     0
291
     1
 45
0.0
1001
ACAD
1000
AcDbSavedByObjectVersion
1070
     0
  0
VISUALSTYLE
  5
C6F0
102
{ACAD_REACTORS
330
C6EC
102
}
330
C6EC
100
AcDbVisualStyle
  2
GouraudWithEdges
 70
     3
 71
     2
 72
     2
 73
     1
 90
        2
 40
-0.6
 41
30.0
 62
     5
 63
     7
 74
     1
 91
        4
 64
     7
 65
   257
 75
     1
175
     1
 42
1.0
 92
        0
 66
   257
 43
1.0
 76
     1
 77
     6
 78
     2
 67
     7
 79
     5
170
     0
171
     0
290
     0
174
     0
 93
       13
 44
0.0
173
     0
291
     1
 45
0.0
1001
ACAD
1000
AcDbSavedByObjectVersion
1070
     0
  0
VISUALSTYLE
  5
C6FA
102
{ACAD_REACTORS
330
C6EC
102
}
330
C6EC
100
AcDbVisualStyle
  2
Linepattern
 70
    14
 71
     2
 72
     2
 73
     0
 90
        0
 40
-0.6
 41
-30.0
 62
     5
 63
     7
 74
     1
 91
        4
 64
     7
 65
   257
 75
     7
175
     7
 42
1.0
 92
        8
 66
     7
 43
1.0
 76
     1
 77
     6
 78
     2
 67
     7
 79
     5
170
     0
171
     0
290
     0
174
     0
 93
        1
 44
0.0
173
     0
291
     1
 45
0.0
1001
ACAD
1000
AcDbSavedByObjectVersion
1070
     0
  0
VISUALSTYLE
  5
C6F6
102
{ACAD_REACTORS
330
C6EC
102
}
330
C6EC
100
AcDbVisualStyle
  2
Realistic
 70
     8
 71
     2
 72
     2
 73
     0
 90
        0
 40
-0.6
 41
-30.0
 62
     5
 63
     7
 74
     1
 91
        0
 64
     7
 65
   257
 75
     1
175
     1
 42
1.0
 92
        8
 66
     8
 43
1.0
 76
     1
 77
     6
 78
     2
 67
     7
 79
     5
170
     0
171
     0
290
     0
174
     0
 93
       13
 44
0.0
173
     0
291
     0
 45
0.0
1001
ACAD
1000
AcDbSavedByObjectVersion
1070
     0
  0
VISUALSTYLE
  5
C6F9
102
{ACAD_REACTORS
330
C6EC
102
}
330
C6EC
100
AcDbVisualStyle
  2
Thicken
 70
    13
 71
     2
 72
     2
 73
     0
 90
        0
 40
-0.6
 41
-30.0
 62
     5
 63
     7
 74
     1
 91
        4
 64
     7
 65
   257
 75
     1
175
     1
 42
1.0
 92
       12
 66
     7
 43
1.0
 76
     1
 77
     6
 78
     2
 67
     7
 79
     5
170
     0
171
     0
290
     0
174
     0
 93
        1
 44
0.0
173
     0
291
     1
 45
0.0
1001
ACAD
1000
AcDbSavedByObjectVersion
1070
     0
  0
DICTIONARYVAR
  5
DD2
102
{ACAD_REACTORS
330
7E5
102
}
330
7E5
100
DictionaryVariables
280
     0
  1
STANDARD
  0
DICTIONARYVAR
  5
2256
102
{ACAD_REACTORS
330
7E5
102
}
330
7E5
100
DictionaryVariables
280
     0
  1
1
  0
DICTIONARYVAR
  5
C75E
102
{ACAD_REACTORS
330
7E5
102
}
330
7E5
100
DictionaryVariables
280
     0
  1
0
  0
DICTIONARYVAR
  5
2257
102
{ACAD_REACTORS
330
7E5
102
}
330
7E5
100
DictionaryVariables
280
     0
  1

  0
DICTIONARYVAR
  5
7E6
102
{ACAD_REACTORS
330
7E5
102
}
330
7E5
100
DictionaryVariables
280
     0
  1
96
  0
DICTIONARY
  5
C762
330
22
100
AcDbDictionary
280
     1
281
     1
  3
ACAD_XREC_ROUNDTRIP
360
C763
  0
DICTIONARY
  5
C760
330
1E
100
AcDbDictionary
280
     1
281
     1
  3
ACAD_XREC_ROUNDTRIP
360
C761
  0
DICTIONARY
  5
C764
330
26
100
AcDbDictionary
280
     1
281
     1
  3
ACAD_XREC_ROUNDTRIP
360
C765
  0
DICTIONARY
  5
C76A
330
C6EA
100
AcDbDictionary
280
     1
281
     1
  3
ACAD_XREC_ROUNDTRIP
360
C76B
  0
DICTIONARY
  5
C768
330
C6E9
100
AcDbDictionary
280
     1
281
     1
  3
ACAD_XREC_ROUNDTRIP
360
C769
  0
DICTIONARY
  5
C76C
330
C6EB
100
AcDbDictionary
280
     1
281
     1
  3
ACAD_XREC_ROUNDTRIP
360
C76D
  0
DICTIONARY
  5
C766
330
D8B
100
AcDbDictionary
280
     1
281
     1
  3
ACAD_XREC_ROUNDTRIP
360
C767
  0
XRECORD
  5
C763
102
{ACAD_REACTORS
330
C762
102
}
330
C762
100
AcDbXrecord
280
     1
102
SHADEPLOT
 70
     0
102
SHADEPLOTRESLEVEL
 70
     2
102
SHADEPLOTCUSTOMDPI
 70
   300
  0
XRECORD
  5
C761
102
{ACAD_REACTORS
330
C760
102
}
330
C760
100
AcDbXrecord
280
     1
102
SHADEPLOT
 70
     0
102
SHADEPLOTRESLEVEL
 70
     2
102
SHADEPLOTCUSTOMDPI
 70
   300
  0
XRECORD
  5
C765
102
{ACAD_REACTORS
330
C764
102
}
330
C764
100
AcDbXrecord
280
     1
102
SHADEPLOT
 70
     0
102
SHADEPLOTRESLEVEL
 70
     2
102
SHADEPLOTCUSTOMDPI
 70
   300
  0
XRECORD
  5
C76B
102
{ACAD_REACTORS
330
C76A
102
}
330
C76A
100
AcDbXrecord
280
     1
102
MATERIAL
148
0.0
149
0.0
149
0.0
 93
        0
 94
       63
282
     0
 72
     1
 77
     1
171
     1
175
     1
179
     1
273
     0
  0
XRECORD
  5
C769
102
{ACAD_REACTORS
330
C768
102
}
330
C768
100
AcDbXrecord
280
     1
102
MATERIAL
148
0.0
149
0.0
149
0.0
 93
        0
 94
       63
282
     0
 72
     1
 77
     1
171
     1
175
     1
179
     1
273
     0
  0
XRECORD
  5
C76D
102
{ACAD_REACTORS
330
C76C
102
}
330
C76C
100
AcDbXrecord
280
     1
102
MATERIAL
148
0.0
149
0.0
149
0.0
 93
        0
 94
       63
282
     0
 72
     1
 77
     1
171
     1
175
     1
179
     1
273
     0
  0
XRECORD
  5
C767
102
{ACAD_REACTORS
330
C766
102
}
330
C766
100
AcDbXrecord
280
     1
102
ACAD_ROUNDTRIP_PRE2007_TABLESTYLE
 90
        4
 91
        0
  1

 92
        4
 93
        0
  2

 94
        4
 95
        0
  3

  0
ENDSEC
  0
EOF
