  0
SECTION
  2
HEADER
  9
$ACADVER
  1
AC1015
  9
$ACADMAINTVER
 70
    20
  9
$DWGCODEPAGE
  3
ANSI_932
  9
$INSBASE
 10
0.0
 20
0.0
 30
0.0
  9
$EXTMIN
 10
86.49508815362947
 20
16.32934670002362
 30
-0.0015258207003583
  9
$EXTMAX
 10
447.0952160557444
 20
396.5249643294665
 30
0.6881714224444906
  9
$LIMMIN
 10
0.0
 20
0.0
  9
$LIMMAX
 10
594.0
 20
420.0
  9
$ORTHOMODE
 70
     0
  9
$REGENMODE
 70
     1
  9
$FILLMODE
 70
     1
  9
$QTEXTMODE
 70
     0
  9
$MIRRTEXT
 70
     0
  9
$LTSCALE
 40
1.0
  9
$ATTMODE
 70
     1
  9
$TEXTSIZE
 40
0.2
  9
$TRACEWID
 40
0.05
  9
$TEXTSTYLE
  7
STANDARD
  9
$CLAYER
  8
0
  9
$CELTYPE
  6
CONTINUOUS
  9
$CECOLOR
 62
   256
  9
$CELTSCALE
 40
1.0
  9
$DISPSILH
 70
     0
  9
$DIMSCALE
 40
1.0
  9
$DIMASZ
 40
0.18
  9
$DIMEXO
 40
0.0625
  9
$DIMDLI
 40
0.38
  9
$DIMRND
 40
0.0
  9
$DIMDLE
 40
0.0
  9
$DIMEXE
 40
0.18
  9
$DIMTP
 40
0.0
  9
$DIMTM
 40
0.0
  9
$DIMTXT
 40
0.18
  9
$DIMCEN
 40
0.09
  9
$DIMTSZ
 40
0.0
  9
$DIMTOL
 70
     0
  9
$DIMLIM
 70
     0
  9
$DIMTIH
 70
     1
  9
$DIMTOH
 70
     1
  9
$DIMSE1
 70
     0
  9
$DIMSE2
 70
     0
  9
$DIMTAD
 70
     0
  9
$DIMZIN
 70
     0
  9
$DIMBLK
  1

  9
$DIMASO
 70
     1
  9
$DIMSHO
 70
     1
  9
$DIMPOST
  1

  9
$DIMAPOST
  1

  9
$DIMALT
 70
     0
  9
$DIMALTD
 70
     2
  9
$DIMALTF
 40
25.4
  9
$DIMLFAC
 40
1.0
  9
$DIMTOFL
 70
     0
  9
$DIMTVP
 40
0.0
  9
$DIMTIX
 70
     0
  9
$DIMSOXD
 70
     0
  9
$DIMSAH
 70
     0
  9
$DIMBLK1
  1

  9
$DIMBLK2
  1

  9
$DIMSTYLE
  2
Standard
  9
$DIMCLRD
 70
     0
  9
$DIMCLRE
 70
     0
  9
$DIMCLRT
 70
     0
  9
$DIMTFAC
 40
1.0
  9
$DIMGAP
 40
0.09
  9
$DIMJUST
 70
     0
  9
$DIMSD1
 70
     0
  9
$DIMSD2
 70
     0
  9
$DIMTOLJ
 70
     1
  9
$DIMTZIN
 70
     0
  9
$DIMALTZ
 70
     0
  9
$DIMALTTZ
 70
     0
  9
$DIMUPT
 70
     0
  9
$DIMDEC
 70
     4
  9
$DIMTDEC
 70
     4
  9
$DIMALTU
 70
     2
  9
$DIMALTTD
 70
     2
  9
$DIMTXSTY
  7
STANDARD
  9
$DIMAUNIT
 70
     0
  9
$DIMADEC
 70
     0
  9
$DIMALTRND
 40
0.0
  9
$DIMAZIN
 70
     0
  9
$DIMDSEP
 70
    46
  9
$DIMATFIT
 70
     3
  9
$DIMFRAC
 70
     0
  9
$DIMLDRBLK
  1

  9
$DIMLUNIT
 70
     2
  9
$DIMLWD
 70
    -2
  9
$DIMLWE
 70
    -2
  9
$DIMTMOVE
 70
     0
  9
$LUNITS
 70
     2
  9
$LUPREC
 70
     4
  9
$SKETCHINC
 40
0.1
  9
$FILLETRAD
 40
0.0
  9
$AUNITS
 70
     0
  9
$AUPREC
 70
     0
  9
$MENU
  1
.
  9
$ELEVATION
 40
0.0
  9
$PELEVATION
 40
0.0
  9
$THICKNESS
 40
0.0
  9
$LIMCHECK
 70
     0
  9
$CHAMFERA
 40
0.0
  9
$CHAMFERB
 40
0.0
  9
$CHAMFERC
 40
0.0
  9
$CHAMFERD
 40
0.0
  9
$SKPOLY
 70
     0
  9
$TDCREATE
 40
2454204.695108322
  9
$TDUCREATE
 40
2454204.320108322
  9
$TDUPDATE
 40
2454204.695543253
  9
$TDUUPDATE
 40
2454204.320543253
  9
$TDINDWG
 40
0.0004351157
  9
$TDUSRTIMER
 40
0.0004351157
  9
$USRTIMER
 70
     1
  9
$ANGBASE
 50
0.0
  9
$ANGDIR
 70
     0
  9
$PDMODE
 70
     0
  9
$PDSIZE
 40
0.0
  9
$PLINEWID
 40
0.0
  9
$SPLFRAME
 70
     0
  9
$SPLINETYPE
 70
     6
  9
$SPLINESEGS
 70
     8
  9
$HANDSEED
  5
35C
  9
$SURFTAB1
 70
     6
  9
$SURFTAB2
 70
     6
  9
$SURFTYPE
 70
     6
  9
$SURFU
 70
     6
  9
$SURFV
 70
     6
  9
$UCSBASE
  2

  9
$UCSNAME
  2

  9
$UCSORG
 10
0.0
 20
0.0
 30
0.0
  9
$UCSXDIR
 10
1.0
 20
0.0
 30
0.0
  9
$UCSYDIR
 10
0.0
 20
1.0
 30
0.0
  9
$UCSORTHOREF
  2

  9
$UCSORTHOVIEW
 70
     0
  9
$UCSORGTOP
 10
0.0
 20
0.0
 30
0.0
  9
$UCSORGBOTTOM
 10
0.0
 20
0.0
 30
0.0
  9
$UCSORGLEFT
 10
0.0
 20
0.0
 30
0.0
  9
$UCSORGRIGHT
 10
0.0
 20
0.0
 30
0.0
  9
$UCSORGFRONT
 10
0.0
 20
0.0
 30
0.0
  9
$UCSORGBACK
 10
0.0
 20
0.0
 30
0.0
  9
$PUCSBASE
  2

  9
$PUCSNAME
  2

  9
$PUCSORG
 10
0.0
 20
0.0
 30
0.0
  9
$PUCSXDIR
 10
1.0
 20
0.0
 30
0.0
  9
$PUCSYDIR
 10
0.0
 20
1.0
 30
0.0
  9
$PUCSORTHOREF
  2

  9
$PUCSORTHOVIEW
 70
     0
  9
$PUCSORGTOP
 10
0.0
 20
0.0
 30
0.0
  9
$PUCSORGBOTTOM
 10
0.0
 20
0.0
 30
0.0
  9
$PUCSORGLEFT
 10
0.0
 20
0.0
 30
0.0
  9
$PUCSORGRIGHT
 10
0.0
 20
0.0
 30
0.0
  9
$PUCSORGFRONT
 10
0.0
 20
0.0
 30
0.0
  9
$PUCSORGBACK
 10
0.0
 20
0.0
 30
0.0
  9
$USERI1
 70
     0
  9
$USERI2
 70
     0
  9
$USERI3
 70
     0
  9
$USERI4
 70
     0
  9
$USERI5
 70
     0
  9
$USERR1
 40
0.0
  9
$USERR2
 40
0.0
  9
$USERR3
 40
0.0
  9
$USERR4
 40
0.0
  9
$USERR5
 40
0.0
  9
$WORLDVIEW
 70
     1
  9
$SHADEDGE
 70
     3
  9
$SHADEDIF
 70
    70
  9
$TILEMODE
 70
     1
  9
$MAXACTVP
 70
    64
  9
$PINSBASE
 10
0.0
 20
0.0
 30
0.0
  9
$PLIMCHECK
 70
     0
  9
$PEXTMIN
 10
1.000000000000000E+20
 20
1.000000000000000E+20
 30
1.000000000000000E+20
  9
$PEXTMAX
 10
-1.000000000000000E+20
 20
-1.000000000000000E+20
 30
-1.000000000000000E+20
  9
$PLIMMIN
 10
0.0
 20
0.0
  9
$PLIMMAX
 10
12.0
 20
9.0
  9
$UNITMODE
 70
     0
  9
$VISRETAIN
 70
     1
  9
$PLINEGEN
 70
     0
  9
$PSLTSCALE
 70
     1
  9
$TREEDEPTH
 70
  3020
  9
$CMLSTYLE
  2
Standard
  9
$CMLJUST
 70
     0
  9
$CMLSCALE
 40
1.0
  9
$PROXYGRAPHICS
 70
     1
  9
$MEASUREMENT
 70
     0
  9
$CELWEIGHT
370
    -1
  9
$ENDCAPS
280
     0
  9
$JOINSTYLE
280
     0
  9
$LWDISPLAY
290
     0
  9
$INSUNITS
 70
     0
  9
$HYPERLINKBASE
  1

  9
$STYLESHEET
  1

  9
$XEDIT
290
     1
  9
$CEPSNTYPE
380
     0
  9
$PSTYLEMODE
290
     1
  9
$FINGERPRINTGUID
  2
{0FA11065-657F-4BA6-BE0A-04D8C53EAF31}
  9
$VERSIONGUID
  2
{AFDE1ECA-003C-448F-8D62-43A8BDEF47EF}
  9
$EXTNAMES
290
     1
  9
$PSVPSCALE
 40
0.0
  9
$OLESTARTUP
290
     0
  0
ENDSEC
  0
SECTION
  2
CLASSES
  0
CLASS
  1
ACDBDICTIONARYWDFLT
  2
AcDbDictionaryWithDefault
  3
ObjectDBX Classes
 90
        0
280
     0
281
     0
  0
CLASS
  1
DICTIONARYVAR
  2
AcDbDictionaryVar
  3
ObjectDBX Classes
 90
        0
280
     0
281
     0
  0
CLASS
  1
ACDBPLACEHOLDER
  2
AcDbPlaceHolder
  3
ObjectDBX Classes
 90
        0
280
     0
281
     0
  0
CLASS
  1
LAYOUT
  2
AcDbLayout
  3
ObjectDBX Classes
 90
        0
280
     0
281
     0
  0
ENDSEC
  0
SECTION
  2
TABLES
  0
TABLE
  2
VPORT
  5
8
330
0
100
AcDbSymbolTable
 70
     2
  0
VPORT
  5
354
330
8
100
AcDbSymbolTableRecord
100
AcDbViewportTableRecord
  2
*Active
 70
     0
 10
0.0
 20
0.0
 11
1.0
 21
1.0
 12
297.0
 22
210.0
 13
0.0
 23
0.0
 14
1.0
 24
1.0
 15
0.0
 25
0.0
 16
0.0
 26
0.0
 36
1.0
 17
0.0
 27
0.0
 37
0.0
 40
425.1958762886597
 41
1.75
 42
50.0
 43
0.0
 44
0.0
 50
0.0
 51
0.0
 71
     0
 72
   100
 73
     1
 74
     1
 75
     0
 76
     0
 77
     0
 78
     0
281
     0
 65
     1
110
0.0
120
0.0
130
0.0
111
1.0
121
0.0
131
0.0
112
0.0
122
1.0
132
0.0
 79
     0
146
0.0
  0
ENDTAB
  0
TABLE
  2
LTYPE
  5
5
330
0
100
AcDbSymbolTable
 70
     3
  0
LTYPE
  5
13
330
5
100
AcDbSymbolTableRecord
100
AcDbLinetypeTableRecord
  2
ByBlock
 70
     0
  3

 72
    65
 73
     0
 40
0.0
  0
LTYPE
  5
14
330
5
100
AcDbSymbolTableRecord
100
AcDbLinetypeTableRecord
  2
ByLayer
 70
     0
  3

 72
    65
 73
     0
 40
0.0
  0
LTYPE
  5
15
330
5
100
AcDbSymbolTableRecord
100
AcDbLinetypeTableRecord
  2
CONTINUOUS
 70
     0
  3
Solid line
 72
    65
 73
     0
 40
0.0
  0
LTYPE
  5
24
330
5
100
AcDbSymbolTableRecord
100
AcDbLinetypeTableRecord
  2
LTYPE1
 70
     0
  3
CENTER
 72
    65
 73
     4
 40
5.0
 49
3.5
 74
     0
 49
-0.5
 74
     0
 49
0.5
 74
     0
 49
-0.5
 74
     0
  0
LTYPE
  5
25
330
5
100
AcDbSymbolTableRecord
100
AcDbLinetypeTableRecord
  2
LTYPE2
 70
     0
  3
HIDDEN
 72
    65
 73
     2
 40
1.0
 49
0.6
 74
     0
 49
-0.4
 74
     0
  0
ENDTAB
  0
TABLE
  2
LAYER
  5
2
330
0
100
AcDbSymbolTable
 70
   128
  0
LAYER
  5
10
330
2
100
AcDbSymbolTableRecord
100
AcDbLayerTableRecord
  2
0
 70
     0
 62
     7
  6
CONTINUOUS
370
    -3
390
F
  0
LAYER
  5
26
330
2
100
AcDbSymbolTableRecord
100
AcDbLayerTableRecord
  2
2
 70
     0
 62
     7
  6
CONTINUOUS
370
    -3
390
F
  0
LAYER
  5
29
330
2
100
AcDbSymbolTableRecord
100
AcDbLayerTableRecord
  2
5
 70
     0
 62
     7
  6
CONTINUOUS
370
    -3
390
F
  0
ENDTAB
  0
TABLE
  2
STYLE
  5
3
330
0
100
AcDbSymbolTable
 70
     5
  0
STYLE
  5
11
330
3
100
AcDbSymbolTableRecord
100
AcDbTextStyleTableRecord
  2
STANDARD
 70
     0
 40
0.0
 41
1.0
 50
0.0
 71
     0
 42
0.2
  3
txt
  4

  0
STYLE
  5
A5
330
3
100
AcDbSymbolTableRecord
100
AcDbTextStyleTableRecord
  2
KANJI0
 70
     0
 40
6.5025
 41
1.0
 50
0.0
 71
     0
 42
6.5025
  3

  4
bigfont
  0
STYLE
  5
A6
330
3
100
AcDbSymbolTableRecord
100
AcDbTextStyleTableRecord
  2
KANJI1
 70
     0
 40
8.904999999999999
 41
0.6293592860000001
 50
0.0
 71
     0
 42
8.904999999999999
  3

  4
bigfont
  0
STYLE
  5
A7
330
3
100
AcDbSymbolTableRecord
100
AcDbTextStyleTableRecord
  2
KANJI2
 70
     0
 40
4.0
 41
1.0
 50
0.0
 71
     0
 42
4.0
  3

  4
bigfont
  0
STYLE
  5
A8
330
3
100
AcDbSymbolTableRecord
100
AcDbTextStyleTableRecord
  2
KANJI3
 70
     0
 40
5.0
 41
1.0
 50
0.0
 71
     0
 42
5.0
  3

  4
bigfont
  0
ENDTAB
  0
TABLE
  2
VIEW
  5
6
330
0
100
AcDbSymbolTable
 70
     0
  0
ENDTAB
  0
TABLE
  2
UCS
  5
7
330
0
100
AcDbSymbolTable
 70
     0
  0
ENDTAB
  0
TABLE
  2
APPID
  5
9
330
0
100
AcDbSymbolTable
 70
     1
  0
APPID
  5
12
330
9
100
AcDbSymbolTableRecord
100
AcDbRegAppTableRecord
  2
ACAD
 70
     0
  0
ENDTAB
  0
TABLE
  2
DIMSTYLE
  5
A
330
0
100
AcDbSymbolTable
 70
     1
100
AcDbDimStyleTable
 71
     0
  0
DIMSTYLE
105
34F
330
A
100
AcDbSymbolTableRecord
100
AcDbDimStyleTableRecord
  2
Standard
 70
     0
340
11
  0
ENDTAB
  0
TABLE
  2
BLOCK_RECORD
  5
1
330
0
100
AcDbSymbolTable
 70
     0
  0
BLOCK_RECORD
  5
20
330
1
100
AcDbSymbolTableRecord
100
AcDbBlockTableRecord
  2
*Model_Space
340
23
  0
BLOCK_RECORD
  5
1C
330
1
100
AcDbSymbolTableRecord
100
AcDbBlockTableRecord
  2
*Paper_Space
340
1F
  0
ENDTAB
  0
ENDSEC
  0
SECTION
  2
BLOCKS
  0
BLOCK
  5
21
330
20
100
AcDbEntity
  8
0
100
AcDbBlockBegin
  2
*Model_Space
 70
     0
 10
0.0
 20
0.0
 30
0.0
  3
*Model_Space
  1

  0
ENDBLK
  5
22
330
20
100
AcDbEntity
  8
0
100
AcDbBlockEnd
  0
BLOCK
  5
1D
330
1C
100
AcDbEntity
 67
     1
  8
0
100
AcDbBlockBegin
  2
*Paper_Space
 70
     0
 10
0.0
 20
0.0
 30
0.0
  3
*Paper_Space
  1

  0
ENDBLK
  5
1E
330
1C
100
AcDbEntity
 67
     1
  8
0
100
AcDbBlockEnd
  0
ENDSEC
  0
SECTION
  2
ENTITIES
  0
LINE
  5
AC
330
20
100
AcDbEntity
  8
2
  6
Continuous
 62
     3
100
AcDbLine
 10
184.95
 20
79.65
 30
0.0
 11
176.35
 21
79.65
 31
0.0
  0
LINE
  5
AD
330
20
100
AcDbEntity
  8
2
  6
Continuous
 62
     3
100
AcDbLine
 10
184.35
 20
79.65
 30
0.0
 11
184.35
 21
86.65
 31
0.0
  0
LINE
  5
AE
330
20
100
AcDbEntity
  8
2
  6
Continuous
 62
     3
100
AcDbLine
 10
184.85
 20
86.65
 30
0.0
 11
176.35
 21
86.65
 31
0.0
  0
LINE
  5
AF
330
20
100
AcDbEntity
  8
2
  6
Continuous
 62
     3
100
AcDbLine
 10
184.85
 20
86.65
 30
0.0
 11
186.85
 21
88.65
 31
0.0
  0
LINE
  5
B0
330
20
100
AcDbEntity
  8
2
  6
Continuous
 62
     3
100
AcDbLine
 10
167.75
 20
79.65
 30
0.0
 11
176.35
 21
79.65
 31
0.0
  0
LINE
  5
B1
330
20
100
AcDbEntity
  8
2
  6
Continuous
 62
     3
100
AcDbLine
 10
168.35
 20
79.65
 30
0.0
 11
168.35
 21
86.65
 31
0.0
  0
LINE
  5
B2
330
20
100
AcDbEntity
  8
2
  6
Continuous
 62
     3
100
AcDbLine
 10
167.85
 20
86.65
 30
0.0
 11
176.35
 21
86.65
 31
0.0
  0
LINE
  5
B3
330
20
100
AcDbEntity
  8
2
  6
Continuous
 62
     3
100
AcDbLine
 10
167.85
 20
86.65
 30
0.0
 11
165.85
 21
88.65
 31
0.0
  0
LINE
  5
B4
330
20
100
AcDbEntity
  8
2
  6
Continuous
 62
     3
100
AcDbLine
 10
165.8551
 20
71.65
 30
0.0
 11
186.8449
 21
71.65
 31
0.0
  0
ARC
  5
B5
330
20
100
AcDbEntity
  8
2
  6
Continuous
 62
     3
100
AcDbCircle
 10
165.8551
 20
76.8214
 30
0.0
 40
5.1714
100
AcDbArc
 50
227.3
 51
312.7
  0
ARC
  5
B6
330
20
100
AcDbEntity
  8
2
  6
Continuous
 62
     3
100
AcDbCircle
 10
176.35
 20
90.20619999999999
 30
0.0
 40
18.5562
100
AcDbArc
 50
247.9
 51
292.1
  0
ARC
  5
B7
330
20
100
AcDbEntity
  8
2
  6
Continuous
 62
     3
100
AcDbCircle
 10
186.8449
 20
76.8214
 30
0.0
 40
5.1714
100
AcDbArc
 50
227.3
 51
312.7
  0
LINE
  5
B8
330
20
100
AcDbEntity
  8
2
  6
Continuous
 62
     3
100
AcDbLine
 10
162.3568
 20
73.0189
 30
0.0
 11
162.3568
 21
76.28109999999999
 31
0.0
  0
LINE
  5
B9
330
20
100
AcDbEntity
  8
2
  6
Continuous
 62
     3
100
AcDbLine
 10
190.3432
 20
73.0189
 30
0.0
 11
190.3432
 21
76.28109999999999
 31
0.0
  0
LINE
  5
BA
330
20
100
AcDbEntity
  8
2
  6
Continuous
 62
     3
100
AcDbLine
 10
183.3466
 20
73.0189
 30
0.0
 11
183.3466
 21
76.28109999999999
 31
0.0
  0
LINE
  5
BB
330
20
100
AcDbEntity
  8
2
  6
Continuous
 62
     3
100
AcDbLine
 10
169.3534
 20
73.0189
 30
0.0
 11
169.3534
 21
76.28109999999999
 31
0.0
  0
LINE
  5
BC
330
20
100
AcDbEntity
  8
2
  6
Continuous
 62
     3
100
AcDbLine
 10
165.8551
 20
77.65
 30
0.0
 11
186.8449
 21
77.65
 31
0.0
  0
ARC
  5
BD
330
20
100
AcDbEntity
  8
2
  6
Continuous
 62
     3
100
AcDbCircle
 10
186.8449
 20
72.4786
 30
0.0
 40
5.1714
100
AcDbArc
 50
47.29999999999999
 51
132.7
  0
ARC
  5
BE
330
20
100
AcDbEntity
  8
2
  6
Continuous
 62
     3
100
AcDbCircle
 10
165.8551
 20
72.4786
 30
0.0
 40
5.1714
100
AcDbArc
 50
47.29999999999999
 51
132.7
  0
ARC
  5
BF
330
20
100
AcDbEntity
  8
2
  6
Continuous
 62
     3
100
AcDbCircle
 10
176.35
 20
59.0938
 30
0.0
 40
18.5562
100
AcDbArc
 50
67.90000000000002
 51
112.1
  0
CIRCLE
  5
C0
330
20
100
AcDbEntity
  8
2
  6
Continuous
 62
     3
100
AcDbCircle
 10
113.35
 20
161.65
 30
0.0
 40
3.5
  0
LINE
  5
C1
330
20
100
AcDbEntity
  8
2
  6
Continuous
 62
     3
100
AcDbLine
 10
103.85
 20
161.65
 30
0.0
 11
103.85
 21
166.620248425
 31
0.0
  0
LINE
  5
C2
330
20
100
AcDbEntity
  8
2
  6
Continuous
 62
     3
100
AcDbLine
 10
108.802507837
 20
172.5281042259999
 30
0.0
 11
123.006464141
 21
175.046536195
 31
0.0
  0
ARC
  5
C3
330
20
100
AcDbEntity
  8
2
  6
Continuous
 62
     3
100
AcDbCircle
 10
109.85
 20
166.620248425
 30
0.0
 40
6.0
100
AcDbArc
 50
100.0543356
 51
180.0
  0
LINE
  5
C4
330
20
100
AcDbEntity
  8
2
  6
Continuous
 62
     3
100
AcDbLine
 10
103.85
 20
161.65
 30
0.0
 11
103.85
 21
156.679751575
 31
0.0
  0
ARC
  5
C5
330
20
100
AcDbEntity
  8
2
  6
Continuous
 62
     3
100
AcDbCircle
 10
109.85
 20
156.679751575
 30
0.0
 40
6.0
100
AcDbArc
 50
180.0
 51
259.9456644
  0
CIRCLE
  5
C6
330
20
100
AcDbEntity
  8
2
  6
Continuous
 62
     3
100
AcDbCircle
 10
239.35
 20
161.65
 30
0.0
 40
3.5
  0
LINE
  5
C7
330
20
100
AcDbEntity
  8
2
  6
Continuous
 62
     3
100
AcDbLine
 10
248.85
 20
161.65
 30
0.0
 11
248.85
 21
166.620248425
 31
0.0
  0
LINE
  5
C8
330
20
100
AcDbEntity
  8
2
  6
Continuous
 62
     3
100
AcDbLine
 10
243.897492163
 20
172.5281042259999
 30
0.0
 11
229.693535859
 21
175.046536195
 31
0.0
  0
ARC
  5
C9
330
20
100
AcDbEntity
  8
2
  6
Continuous
 62
     3
100
AcDbCircle
 10
242.85
 20
166.620248425
 30
0.0
 40
6.0
100
AcDbArc
 50
0.0
 51
79.94566440000001
  0
LINE
  5
CA
330
20
100
AcDbEntity
  8
2
  6
Continuous
 62
     3
100
AcDbLine
 10
248.85
 20
161.65
 30
0.0
 11
248.85
 21
156.679751575
 31
0.0
  0
LINE
  5
CB
330
20
100
AcDbEntity
  8
2
  6
Continuous
 62
     3
100
AcDbLine
 10
243.897492163
 20
150.771895774
 30
0.0
 11
229.693535859
 21
148.253463805
 31
0.0
  0
ARC
  5
CC
330
20
100
AcDbEntity
  8
2
  6
Continuous
 62
     3
100
AcDbCircle
 10
242.85
 20
156.679751575
 30
0.0
 40
6.0
100
AcDbArc
 50
280.0543356
 51
0.0
  0
LINE
  5
CD
330
20
100
AcDbEntity
  8
2
  6
Continuous
 62
     3
100
AcDbLine
 10
182.35
 20
109.337238651
 30
0.0
 11
181.707142857
 21
111.337238651
 31
0.0
  0
LINE
  5
CE
330
20
100
AcDbEntity
  8
2
  6
Continuous
 62
     3
100
AcDbLine
 10
181.707142857
 20
111.337238651
 30
0.0
 11
176.35
 21
111.337238651
 31
0.0
  0
LINE
  5
CF
330
20
100
AcDbEntity
  8
2
  6
Continuous
 62
     3
100
AcDbLine
 10
170.35
 20
109.337238651
 30
0.0
 11
170.992857143
 21
111.337238651
 31
0.0
  0
LINE
  5
D0
330
20
100
AcDbEntity
  8
2
  6
Continuous
 62
     3
100
AcDbLine
 10
170.992857143
 20
111.337238651
 30
0.0
 11
176.35
 21
111.337238651
 31
0.0
  0
LINE
  5
D1
330
20
100
AcDbEntity
  8
2
  6
Continuous
 62
     3
100
AcDbLine
 10
124.743505467
 20
172.109193182
 30
0.0
 11
126.844272282
 21
172.102552668
 31
0.0
  0
LINE
  5
D2
330
20
100
AcDbEntity
  8
2
  6
Continuous
 62
     3
100
AcDbLine
 10
227.956494533
 20
172.109193182
 30
0.0
 11
225.855727718
 21
172.102552668
 31
0.0
  0
LINE
  5
D3
330
20
100
AcDbEntity
  8
2
  6
Continuous
 62
     3
100
AcDbLine
 10
227.956494533
 20
151.190806818
 30
0.0
 11
225.855727718
 21
151.197447332
 31
0.0
  0
LINE
  5
D4
330
20
100
AcDbEntity
  8
2
  6
Continuous
 62
     3
100
AcDbLine
 10
225.855727718
 20
151.197447332
 30
0.0
 11
224.200279534
 21
146.102501709
 31
0.0
  0
LINE
  5
D5
330
20
100
AcDbEntity
  8
2
  6
Continuous
 62
     3
100
AcDbLine
 10
224.2482906
 20
139.778128623
 30
0.0
 11
222.54483135
 21
141.007556086
 31
0.0
  0
LINE
  5
D6
330
20
100
AcDbEntity
  8
2
  6
Continuous
 62
     3
100
AcDbLine
 10
222.54483135
 20
141.007556086
 30
0.0
 11
224.200279534
 21
146.102501709
 31
0.0
  0
LINE
  5
D7
330
20
100
AcDbEntity
  8
2
  6
Continuous
 62
     3
100
AcDbLine
 10
211.952771594
 20
122.854798559
 30
0.0
 11
210.257118736
 21
124.0949706
 31
0.0
  0
LINE
  5
D8
330
20
100
AcDbEntity
  8
2
  6
Continuous
 62
     3
100
AcDbLine
 10
210.257118736
 20
124.0949706
 30
0.0
 11
205.923099123
 21
120.946121034
 31
0.0
  0
LINE
  5
D9
330
20
100
AcDbEntity
  8
2
  6
Continuous
 62
     3
100
AcDbLine
 10
202.244567662
 20
115.801375532
 30
0.0
 11
201.589079511
 21
117.797271469
 31
0.0
  0
LINE
  5
DA
330
20
100
AcDbEntity
  8
2
  6
Continuous
 62
     3
100
AcDbLine
 10
201.589079511
 20
117.797271469
 30
0.0
 11
205.923099123
 21
120.946121034
 31
0.0
  0
LINE
  5
DB
330
20
100
AcDbEntity
  8
2
  6
Continuous
 62
     3
100
AcDbLine
 10
126.844272282
 20
172.102552668
 30
0.0
 11
128.499720466
 21
177.197498291
 31
0.0
  0
LINE
  5
DC
330
20
100
AcDbEntity
  8
2
  6
Continuous
 62
     3
100
AcDbLine
 10
128.4517094
 20
183.521871377
 30
0.0
 11
130.15516865
 21
182.292443914
 31
0.0
  0
LINE
  5
DD
330
20
100
AcDbEntity
  8
2
  6
Continuous
 62
     3
100
AcDbLine
 10
130.15516865
 20
182.292443914
 30
0.0
 11
128.499720466
 21
177.197498291
 31
0.0
  0
LINE
  5
DE
330
20
100
AcDbEntity
  8
2
  6
Continuous
 62
     3
100
AcDbLine
 10
140.747228406
 20
200.445201441
 30
0.0
 11
142.442881264
 21
199.2050294
 31
0.0
  0
LINE
  5
DF
330
20
100
AcDbEntity
  8
2
  6
Continuous
 62
     3
100
AcDbLine
 10
142.442881264
 20
199.2050294
 30
0.0
 11
146.776900877
 21
202.353878966
 31
0.0
  0
LINE
  5
E0
330
20
100
AcDbEntity
  8
2
  6
Continuous
 62
     3
100
AcDbLine
 10
150.455432338
 20
207.498624468
 30
0.0
 11
151.110920489
 21
205.502728531
 31
0.0
  0
LINE
  5
E1
330
20
100
AcDbEntity
  8
2
  6
Continuous
 62
     3
100
AcDbLine
 10
151.110920489
 20
205.502728531
 30
0.0
 11
146.776900877
 21
202.353878966
 31
0.0
  0
LINE
  5
E2
330
20
100
AcDbEntity
  8
2
  6
Continuous
 62
     3
100
AcDbLine
 10
170.35
 20
213.962761349
 30
0.0
 11
170.992857143
 21
211.962761349
 31
0.0
  0
LINE
  5
E3
330
20
100
AcDbEntity
  8
2
  6
Continuous
 62
     3
100
AcDbLine
 10
170.992857143
 20
211.962761349
 30
0.0
 11
176.35
 21
211.962761349
 31
0.0
  0
LINE
  5
E4
330
20
100
AcDbEntity
  8
2
  6
Continuous
 62
     3
100
AcDbLine
 10
182.35
 20
213.962761349
 30
0.0
 11
181.707142857
 21
211.962761349
 31
0.0
  0
LINE
  5
E5
330
20
100
AcDbEntity
  8
2
  6
Continuous
 62
     3
100
AcDbLine
 10
181.707142857
 20
211.962761349
 30
0.0
 11
176.35
 21
211.962761349
 31
0.0
  0
LINE
  5
E6
330
20
100
AcDbEntity
  8
2
  6
Continuous
 62
     3
100
AcDbLine
 10
202.244567662
 20
207.498624468
 30
0.0
 11
201.589079511
 21
205.502728531
 31
0.0
  0
LINE
  5
E7
330
20
100
AcDbEntity
  8
2
  6
Continuous
 62
     3
100
AcDbLine
 10
201.589079511
 20
205.502728531
 30
0.0
 11
205.923099123
 21
202.353878966
 31
0.0
  0
LINE
  5
E8
330
20
100
AcDbEntity
  8
2
  6
Continuous
 62
     3
100
AcDbLine
 10
211.952771594
 20
200.445201441
 30
0.0
 11
210.257118736
 21
199.2050294
 31
0.0
  0
LINE
  5
E9
330
20
100
AcDbEntity
  8
2
  6
Continuous
 62
     3
100
AcDbLine
 10
210.257118736
 20
199.2050294
 30
0.0
 11
205.923099123
 21
202.353878966
 31
0.0
  0
LINE
  5
EA
330
20
100
AcDbEntity
  8
2
  6
Continuous
 62
     3
100
AcDbLine
 10
224.2482906
 20
183.521871377
 30
0.0
 11
222.54483135
 21
182.292443914
 31
0.0
  0
LINE
  5
EB
330
20
100
AcDbEntity
  8
2
  6
Continuous
 62
     3
100
AcDbLine
 10
222.54483135
 20
182.292443914
 30
0.0
 11
224.200279534
 21
177.197498291
 31
0.0
  0
LINE
  5
EC
330
20
100
AcDbEntity
  8
2
  6
Continuous
 62
     3
100
AcDbLine
 10
225.855727718
 20
172.102552668
 30
0.0
 11
224.200279534
 21
177.197498291
 31
0.0
  0
LINE
  5
ED
330
20
100
AcDbEntity
  8
2
  6
Continuous
 62
     3
100
AcDbLine
 10
224.2482906
 20
183.521871377
 30
0.0
 11
222.54483135
 21
182.292443914
 31
0.0
  0
LINE
  5
EE
330
20
100
AcDbEntity
  8
2
  6
Continuous
 62
     3
100
AcDbLine
 10
222.54483135
 20
182.292443914
 30
0.0
 11
224.200279534
 21
177.197498291
 31
0.0
  0
LINE
  5
EF
330
20
100
AcDbEntity
  8
2
  6
Continuous
 62
     3
100
AcDbLine
 10
204.333028703
 20
190.232339033
 30
0.0
 11
214.681832896
 21
197.751185393
 31
0.0
  0
LWPOLYLINE
  5
F0
330
20
100
AcDbEntity
  8
2
  6
Continuous
 62
     3
100
AcDbPolyline
 90
        3
 70
     0
 43
0.0
 10
233.85
 20
201.65
 10
233.85
 20
218.65
 10
233.35
 20
219.15
  0
LINE
  5
F5
330
20
100
AcDbEntity
  8
2
  6
Continuous
 62
     3
100
AcDbLine
 10
233.85
 20
201.65
 30
0.0
 11
233.85
 21
184.65
 31
0.0
  0
LINE
  5
F6
330
20
100
AcDbEntity
  8
2
  6
Continuous
 62
     3
100
AcDbLine
 10
233.35
 20
184.15
 30
0.0
 11
226.53714975
 21
184.15
 31
0.0
  0
LINE
  5
F7
330
20
100
AcDbEntity
  8
2
  6
Continuous
 62
     3
100
AcDbLine
 10
233.85
 20
184.65
 30
0.0
 11
233.35
 21
184.15
 31
0.0
  0
LWPOLYLINE
  5
F8
330
20
100
AcDbEntity
  8
2
  6
Continuous
 62
     3
100
AcDbPolyline
 90
        3
 70
     0
 43
0.0
 10
118.85
 20
201.65
 10
118.85
 20
218.65
 10
119.35
 20
219.15
  0
LINE
  5
FD
330
20
100
AcDbEntity
  8
2
  6
Continuous
 62
     3
100
AcDbLine
 10
118.85
 20
201.65
 30
0.0
 11
118.85
 21
184.65
 31
0.0
  0
LINE
  5
FE
330
20
100
AcDbEntity
  8
2
  6
Continuous
 62
     3
100
AcDbLine
 10
119.35
 20
184.15
 30
0.0
 11
126.16285025
 21
184.15
 31
0.0
  0
LINE
  5
FF
330
20
100
AcDbEntity
  8
2
  6
Continuous
 62
     3
100
AcDbLine
 10
118.85
 20
184.65
 30
0.0
 11
119.35
 21
184.15
 31
0.0
  0
LINE
  5
100
330
20
100
AcDbEntity
  8
2
  6
Continuous
 62
     3
100
AcDbLine
 10
176.35
 20
221.65
 30
0.0
 11
211.35
 21
221.65
 31
0.0
  0
LINE
  5
101
330
20
100
AcDbEntity
  8
2
  6
Continuous
 62
     3
100
AcDbLine
 10
211.35
 20
221.65
 30
0.0
 11
211.35
 21
219.15
 31
0.0
  0
LINE
  5
102
330
20
100
AcDbEntity
  8
2
  6
Continuous
 62
     3
100
AcDbLine
 10
191.35
 20
214.565026221
 30
0.0
 11
191.35
 21
215.122508906
 31
0.0
  0
LINE
  5
103
330
20
100
AcDbEntity
  8
2
  6
Continuous
 62
     3
100
AcDbLine
 10
193.633939717
 20
217.613154997
 30
0.0
 11
211.35
 21
219.15
 31
0.0
  0
ARC
  5
104
330
20
100
AcDbEntity
  8
2
  6
Continuous
 62
     3
100
AcDbCircle
 10
193.85
 20
215.122508906
 30
0.0
 40
2.5
100
AcDbArc
 50
94.95792193899999
 51
180.0
  0
LINE
  5
105
330
20
100
AcDbEntity
  8
2
  6
Continuous
 62
     3
100
AcDbLine
 10
233.35
 20
219.15
 30
0.0
 11
211.35
 21
219.15
 31
0.0
  0
LINE
  5
106
330
20
100
AcDbEntity
  8
2
  6
Continuous
 62
     3
100
AcDbLine
 10
176.35
 20
221.65
 30
0.0
 11
141.35
 21
221.65
 31
0.0
  0
LINE
  5
107
330
20
100
AcDbEntity
  8
2
  6
Continuous
 62
     3
100
AcDbLine
 10
141.35
 20
221.65
 30
0.0
 11
141.35
 21
219.15
 31
0.0
  0
LINE
  5
108
330
20
100
AcDbEntity
  8
2
  6
Continuous
 62
     3
100
AcDbLine
 10
161.35
 20
214.565026221
 30
0.0
 11
161.35
 21
215.122508906
 31
0.0
  0
LINE
  5
109
330
20
100
AcDbEntity
  8
2
  6
Continuous
 62
     3
100
AcDbLine
 10
159.066060283
 20
217.613154997
 30
0.0
 11
141.35
 21
219.15
 31
0.0
  0
ARC
  5
10A
330
20
100
AcDbEntity
  8
2
  6
Continuous
 62
     3
100
AcDbCircle
 10
158.85
 20
215.122508906
 30
0.0
 40
2.5
100
AcDbArc
 50
0.0
 51
85.042078061
  0
LINE
  5
10B
330
20
100
AcDbEntity
  8
2
  6
Continuous
 62
     3
100
AcDbLine
 10
119.35
 20
219.15
 30
0.0
 11
141.35
 21
219.15
 31
0.0
  0
LINE
  5
10C
330
20
100
AcDbEntity
  8
2
  6
Continuous
 62
     3
100
AcDbLine
 10
212.180651212
 20
179.431013294
 30
0.0
 11
214.765476451
 21
179.673073241
 31
0.0
  0
LINE
  5
10D
330
20
100
AcDbEntity
  8
2
  6
Continuous
 62
     3
100
AcDbLine
 10
222.529455405
 20
186.949859654
 30
0.0
 11
212.180651212
 21
179.431013294
 31
0.0
  0
LINE
  5
10E
330
20
100
AcDbEntity
  8
2
  6
Continuous
 62
     3
100
AcDbLine
 10
214.765476451
 20
179.673073241
 30
0.0
 11
223.129455405
 21
185.749859654
 31
0.0
  0
LINE
  5
10F
330
20
100
AcDbEntity
  8
2
  6
Continuous
 62
     3
100
AcDbLine
 10
108.802507837
 20
150.771895774
 30
0.0
 11
123.006464141
 21
148.253463805
 31
0.0
  0
LINE
  5
110
330
20
100
AcDbEntity
  8
2
  6
Continuous
 62
     3
100
AcDbLine
 10
150.455432338
 20
115.801375532
 30
0.0
 11
151.110920489
 21
117.797271469
 31
0.0
  0
LINE
  5
111
330
20
100
AcDbEntity
  8
2
  6
Continuous
 62
     3
100
AcDbLine
 10
151.110920489
 20
117.797271469
 30
0.0
 11
146.776900877
 21
120.946121034
 31
0.0
  0
LINE
  5
112
330
20
100
AcDbEntity
  8
2
  6
Continuous
 62
     3
100
AcDbLine
 10
140.747228406
 20
122.854798559
 30
0.0
 11
142.442881264
 21
124.0949706
 31
0.0
  0
LINE
  5
113
330
20
100
AcDbEntity
  8
2
  6
Continuous
 62
     3
100
AcDbLine
 10
142.442881264
 20
124.0949706
 30
0.0
 11
146.776900877
 21
120.946121034
 31
0.0
  0
LINE
  5
114
330
20
100
AcDbEntity
  8
2
  6
Continuous
 62
     3
100
AcDbLine
 10
128.4517094
 20
139.778128623
 30
0.0
 11
130.15516865
 21
141.007556086
 31
0.0
  0
LINE
  5
115
330
20
100
AcDbEntity
  8
2
  6
Continuous
 62
     3
100
AcDbLine
 10
130.15516865
 20
141.007556086
 30
0.0
 11
128.499720466
 21
146.102501709
 31
0.0
  0
LINE
  5
116
330
20
100
AcDbEntity
  8
2
  6
Continuous
 62
     3
100
AcDbLine
 10
124.743505467
 20
151.190806818
 30
0.0
 11
126.844272282
 21
151.197447332
 31
0.0
  0
LINE
  5
117
330
20
100
AcDbEntity
  8
2
  6
Continuous
 62
     3
100
AcDbLine
 10
126.844272282
 20
151.197447332
 30
0.0
 11
128.499720466
 21
146.102501709
 31
0.0
  0
LINE
  5
118
330
20
100
AcDbEntity
  8
2
  6
Continuous
 62
     3
100
AcDbLine
 10
140.519348788
 20
143.868986706
 30
0.0
 11
130.170544595
 21
136.350140346
 31
0.0
  0
LINE
  5
119
330
20
100
AcDbEntity
  8
2
  6
Continuous
 62
     3
100
AcDbLine
 10
148.366971297
 20
133.067660967
 30
0.0
 11
138.018167104
 21
125.548814607
 31
0.0
  0
LINE
  5
11A
330
20
100
AcDbEntity
  8
2
  6
Continuous
 62
     3
100
AcDbLine
 10
140.519348788
 20
143.868986706
 30
0.0
 11
137.939308845
 21
143.616730607
 31
0.0
  0
LINE
  5
11B
330
20
100
AcDbEntity
  8
2
  6
Continuous
 62
     3
100
AcDbLine
 10
137.939308845
 20
143.616730607
 30
0.0
 11
129.520544595
 21
137.500140346
 31
0.0
  0
CIRCLE
  5
11C
330
20
100
AcDbEntity
  8
2
  6
Continuous
 62
     3
100
AcDbCircle
 10
176.35
 20
161.65
 30
0.0
 40
55.0
  0
CIRCLE
  5
11D
330
20
100
AcDbEntity
  8
2
  6
Continuous
 62
     3
100
AcDbCircle
 10
176.35
 20
161.65
 30
0.0
 40
52.655721437
  0
ARC
  5
11E
330
20
100
AcDbEntity
  8
2
  6
Continuous
 62
     3
100
AcDbCircle
 10
176.35
 20
161.65
 30
0.0
 40
40.0
100
AcDbArc
 50
45.607026333
 51
206.392973667
  0
ARC
  5
11F
330
20
100
AcDbEntity
  8
2
  6
Continuous
 62
     3
100
AcDbCircle
 10
176.35
 20
161.65
 30
0.0
 40
40.0
100
AcDbArc
 50
225.607026333
 51
26.392973667
  0
ARC
  5
120
330
20
100
AcDbEntity
  8
2
  6
Continuous
 62
     3
100
AcDbCircle
 10
176.35
 20
161.65
 30
0.0
 40
42.433241686
100
AcDbArc
 50
225.051358271
 51
25.134174809
  0
ARC
  5
121
330
20
100
AcDbEntity
  8
2
  6
Continuous
 62
     3
100
AcDbCircle
 10
176.35
 20
161.65
 30
0.0
 40
42.433241686
100
AcDbArc
 50
45.051358271
 51
205.149383077
  0
CIRCLE
  5
122
330
20
100
AcDbEntity
  8
2
  6
Continuous
 62
     3
100
AcDbCircle
 10
201.85
 20
161.65
 30
0.0
 40
2.0
  0
CIRCLE
  5
123
330
20
100
AcDbEntity
  8
2
  6
Continuous
 62
     3
100
AcDbCircle
 10
150.85
 20
161.65
 30
0.0
 40
2.0
  0
LINE
  5
124
330
20
100
AcDbEntity
  8
2
  6
Continuous
 62
     3
100
AcDbLine
 10
194.35
 20
101.65
 30
0.0
 11
194.25
 21
101.65
 31
0.0
  0
LINE
  5
125
330
20
100
AcDbEntity
  8
2
  6
Continuous
 62
     3
100
AcDbLine
 10
176.35
 20
98.65000000000001
 30
0.0
 11
193.85
 21
98.65000000000001
 31
0.0
  0
LINE
  5
126
330
20
100
AcDbEntity
  8
2
  6
Continuous
 62
     3
100
AcDbLine
 10
194.35
 20
99.15
 30
0.0
 11
194.35
 21
101.65
 31
0.0
  0
LINE
  5
127
330
20
100
AcDbEntity
  8
2
  6
Continuous
 62
     3
100
AcDbLine
 10
193.85
 20
98.65000000000001
 30
0.0
 11
194.35
 21
99.15
 31
0.0
  0
LINE
  5
128
330
20
100
AcDbEntity
  8
2
  6
Continuous
 62
     3
100
AcDbLine
 10
176.35
 20
101.65
 30
0.0
 11
194.35
 21
101.65
 31
0.0
  0
LINE
  5
129
330
20
100
AcDbEntity
  8
2
  6
Continuous
 62
     3
100
AcDbLine
 10
176.35
 20
94.65000000000001
 30
0.0
 11
194.85
 21
94.65000000000001
 31
0.0
  0
LINE
  5
12A
330
20
100
AcDbEntity
  8
2
  6
Continuous
 62
     3
100
AcDbLine
 10
194.85
 20
94.65000000000001
 30
0.0
 11
194.85
 21
98.65000000000001
 31
0.0
  0
LINE
  5
12B
330
20
100
AcDbEntity
  8
2
  6
Continuous
 62
     3
100
AcDbLine
 10
194.85
 20
98.65000000000001
 30
0.0
 11
193.85
 21
98.65000000000001
 31
0.0
  0
LINE
  5
12C
330
20
100
AcDbEntity
  8
2
  6
Continuous
 62
     3
100
AcDbLine
 10
194.35
 20
101.65
 30
0.0
 11
193.35
 21
102.45
 31
0.0
  0
LINE
  5
12D
330
20
100
AcDbEntity
  8
2
  6
Continuous
 62
     3
100
AcDbLine
 10
193.35
 20
102.45
 30
0.0
 11
176.35
 21
102.45
 31
0.0
  0
LINE
  5
12E
330
20
100
AcDbEntity
  8
2
  6
Continuous
 62
     3
100
AcDbLine
 10
158.35
 20
101.65
 30
0.0
 11
158.45
 21
101.65
 31
0.0
  0
LINE
  5
12F
330
20
100
AcDbEntity
  8
2
  6
Continuous
 62
     3
100
AcDbLine
 10
176.35
 20
98.65000000000001
 30
0.0
 11
158.85
 21
98.65000000000001
 31
0.0
  0
LINE
  5
130
330
20
100
AcDbEntity
  8
2
  6
Continuous
 62
     3
100
AcDbLine
 10
158.35
 20
99.15
 30
0.0
 11
158.35
 21
101.65
 31
0.0
  0
LINE
  5
131
330
20
100
AcDbEntity
  8
2
  6
Continuous
 62
     3
100
AcDbLine
 10
158.85
 20
98.65000000000001
 30
0.0
 11
158.35
 21
99.15
 31
0.0
  0
LINE
  5
132
330
20
100
AcDbEntity
  8
2
  6
Continuous
 62
     3
100
AcDbLine
 10
176.35
 20
101.65
 30
0.0
 11
158.35
 21
101.65
 31
0.0
  0
LINE
  5
133
330
20
100
AcDbEntity
  8
2
  6
Continuous
 62
     3
100
AcDbLine
 10
176.35
 20
94.65000000000001
 30
0.0
 11
157.85
 21
94.65000000000001
 31
0.0
  0
LINE
  5
134
330
20
100
AcDbEntity
  8
2
  6
Continuous
 62
     3
100
AcDbLine
 10
157.85
 20
94.65000000000001
 30
0.0
 11
157.85
 21
98.65000000000001
 31
0.0
  0
LINE
  5
135
330
20
100
AcDbEntity
  8
2
  6
Continuous
 62
     3
100
AcDbLine
 10
157.85
 20
98.65000000000001
 30
0.0
 11
158.85
 21
98.65000000000001
 31
0.0
  0
LINE
  5
136
330
20
100
AcDbEntity
  8
2
  6
Continuous
 62
     3
100
AcDbLine
 10
158.35
 20
101.65
 30
0.0
 11
159.35
 21
102.45
 31
0.0
  0
LINE
  5
137
330
20
100
AcDbEntity
  8
2
  6
Continuous
 62
     3
100
AcDbLine
 10
159.35
 20
102.45
 30
0.0
 11
176.35
 21
102.45
 31
0.0
  0
LINE
  5
138
330
20
100
AcDbEntity
  8
2
  6
Continuous
 62
     3
100
AcDbLine
 10
184.95
 20
71.65
 30
0.0
 11
184.95
 21
79.65
 31
0.0
  0
LINE
  5
139
330
20
100
AcDbEntity
  8
2
  6
Continuous
 62
     3
100
AcDbLine
 10
167.75
 20
71.65
 30
0.0
 11
167.75
 21
79.65
 31
0.0
  0
LINE
  5
13A
330
20
100
AcDbEntity
  8
2
  6
Continuous
 62
     3
100
AcDbLine
 10
193.35
 20
102.45
 30
0.0
 11
193.35
 21
109.343212678
 31
0.0
  0
LINE
  5
13B
330
20
100
AcDbEntity
  8
2
  6
Continuous
 62
     3
100
AcDbLine
 10
159.35
 20
102.45
 30
0.0
 11
159.35
 21
109.343212678
 31
0.0
  0
LINE
  5
13C
330
20
100
AcDbEntity
  8
2
  6
Continuous
 62
     3
100
AcDbLine
 10
419.6499999999999
 20
161.65
 30
0.0
 11
419.6499999999999
 21
116.65
 31
0.0
  0
ARC
  5
13D
330
20
100
AcDbEntity
  8
2
  6
Continuous
 62
     3
100
AcDbCircle
 10
414.6499999999999
 20
116.65
 30
0.0
 40
5.0
100
AcDbArc
 50
270.0
 51
0.0
  0
LINE
  5
13E
330
20
100
AcDbEntity
  8
2
  6
Continuous
 62
     3
100
AcDbLine
 10
312.65
 20
107.65
 30
0.0
 11
312.65
 21
161.65
 31
0.0
  0
LINE
  5
13F
330
20
100
AcDbEntity
  8
2
  6
Continuous
 62
     3
100
AcDbLine
 10
313.65
 20
106.65
 30
0.0
 11
312.65
 21
107.65
 31
0.0
  0
LINE
  5
140
330
20
100
AcDbEntity
  8
2
  6
Continuous
 62
     3
100
AcDbLine
 10
419.6499999999999
 20
161.65
 30
0.0
 11
419.6499999999999
 21
206.65
 31
0.0
  0
ARC
  5
141
330
20
100
AcDbEntity
  8
2
  6
Continuous
 62
     3
100
AcDbCircle
 10
414.6499999999999
 20
206.65
 30
0.0
 40
5.0
100
AcDbArc
 50
0.0
 51
90.0
  0
LINE
  5
142
330
20
100
AcDbEntity
  8
2
  6
Continuous
 62
     3
100
AcDbLine
 10
312.65
 20
215.65
 30
0.0
 11
312.65
 21
161.65
 31
0.0
  0
LINE
  5
143
330
20
100
AcDbEntity
  8
2
  6
Continuous
 62
     3
100
AcDbLine
 10
313.65
 20
216.65
 30
0.0
 11
312.65
 21
215.65
 31
0.0
  0
LINE
  5
144
330
20
100
AcDbEntity
  8
2
  6
Continuous
 62
     3
100
AcDbLine
 10
370.247294905
 20
215.97125579
 30
0.0
 11
374.05
 21
211.65
 31
0.0
  0
LINE
  5
145
330
20
100
AcDbEntity
  8
2
  6
Continuous
 62
     3
100
AcDbLine
 10
368.745867871
 20
216.65
 30
0.0
 11
370.247294905
 21
215.97125579
 31
0.0
  0
CIRCLE
  5
146
330
20
100
AcDbEntity
  8
2
  6
Continuous
 62
     3
100
AcDbCircle
 10
394.65
 20
201.65
 30
0.0
 40
17.5
  0
CIRCLE
  5
147
330
20
100
AcDbEntity
  8
2
  6
Continuous
 62
     3
100
AcDbCircle
 10
394.65
 20
201.65
 30
0.0
 40
9.5
  0
CIRCLE
  5
148
330
20
100
AcDbEntity
  8
2
  6
Continuous
 62
     3
100
AcDbCircle
 10
394.65
 20
201.65
 30
0.0
 40
10.5
  0
LINE
  5
149
330
20
100
AcDbEntity
  8
2
  6
Continuous
 62
     3
100
AcDbLine
 10
409.0114066159999
 20
211.65
 30
0.0
 11
414.6499999999999
 21
211.65
 31
0.0
  0
LINE
  5
14A
330
20
100
AcDbEntity
  8
2
  6
Continuous
 62
     3
100
AcDbLine
 10
374.05
 20
211.65
 30
0.0
 11
380.288593384
 21
211.65
 31
0.0
  0
LINE
  5
14B
330
20
100
AcDbEntity
  8
2
  6
Continuous
 62
     3
100
AcDbLine
 10
394.65
 20
221.65
 30
0.0
 11
374.65
 21
221.65
 31
0.0
  0
LINE
  5
14C
330
20
100
AcDbEntity
  8
2
  6
Continuous
 62
     3
100
AcDbLine
 10
374.65
 20
221.65
 30
0.0
 11
374.65
 21
211.65
 31
0.0
  0
LINE
  5
14D
330
20
100
AcDbEntity
  8
2
  6
Continuous
 62
     3
100
AcDbLine
 10
374.65
 20
220.25
 30
0.0
 11
394.65
 21
220.25
 31
0.0
  0
LINE
  5
14E
330
20
100
AcDbEntity
  8
2
  6
Continuous
 62
     3
100
AcDbLine
 10
394.65
 20
221.65
 30
0.0
 11
414.6499999999999
 21
221.65
 31
0.0
  0
LINE
  5
14F
330
20
100
AcDbEntity
  8
2
  6
Continuous
 62
     3
100
AcDbLine
 10
414.6499999999999
 20
221.65
 30
0.0
 11
414.6499999999999
 21
211.65
 31
0.0
  0
LINE
  5
150
330
20
100
AcDbEntity
  8
2
  6
Continuous
 62
     3
100
AcDbLine
 10
414.6499999999999
 20
220.25
 30
0.0
 11
394.65
 21
220.25
 31
0.0
  0
LINE
  5
151
330
20
100
AcDbEntity
  8
2
  6
Continuous
 62
     3
100
AcDbLine
 10
412.65
 20
161.65
 30
0.0
 11
412.65
 21
177.15
 31
0.0
  0
LINE
  5
152
330
20
100
AcDbEntity
  8
2
  6
Continuous
 62
     3
100
AcDbLine
 10
413.1499999999999
 20
177.65
 30
0.0
 11
419.6499999999999
 21
177.65
 31
0.0
  0
LINE
  5
153
330
20
100
AcDbEntity
  8
2
  6
Continuous
 62
     3
100
AcDbLine
 10
412.65
 20
177.15
 30
0.0
 11
413.1499999999999
 21
177.65
 31
0.0
  0
LINE
  5
154
330
20
100
AcDbEntity
  8
2
  6
Continuous
 62
     3
100
AcDbLine
 10
412.65
 20
161.65
 30
0.0
 11
412.65
 21
146.15
 31
0.0
  0
LINE
  5
155
330
20
100
AcDbEntity
  8
2
  6
Continuous
 62
     3
100
AcDbLine
 10
413.1499999999999
 20
145.65
 30
0.0
 11
419.6499999999999
 21
145.65
 31
0.0
  0
LINE
  5
156
330
20
100
AcDbEntity
  8
2
  6
Continuous
 62
     3
100
AcDbLine
 10
412.65
 20
146.15
 30
0.0
 11
413.1499999999999
 21
145.65
 31
0.0
  0
LINE
  5
157
330
20
100
AcDbEntity
  8
2
  6
Continuous
 62
     3
100
AcDbLine
 10
364.4
 20
201.65
 30
0.0
 11
364.4
 21
207.65
 31
0.0
  0
LINE
  5
158
330
20
100
AcDbEntity
  8
2
  6
Continuous
 62
     3
100
AcDbLine
 10
364.4
 20
207.65
 30
0.0
 11
376.1
 21
207.65
 31
0.0
  0
LINE
  5
159
330
20
100
AcDbEntity
  8
2
  6
Continuous
 62
     3
100
AcDbLine
 10
376.1
 20
207.65
 30
0.0
 11
376.1
 21
201.65
 31
0.0
  0
LINE
  5
15A
330
20
100
AcDbEntity
  8
2
  6
Continuous
 62
     3
100
AcDbLine
 10
364.4
 20
195.65
 30
0.0
 11
376.1
 21
195.65
 31
0.0
  0
LINE
  5
15B
330
20
100
AcDbEntity
  8
2
  6
Continuous
 62
     3
100
AcDbLine
 10
376.1
 20
195.65
 30
0.0
 11
376.1
 21
201.65
 31
0.0
  0
LINE
  5
15C
330
20
100
AcDbEntity
  8
2
  6
Continuous
 62
     3
100
AcDbLine
 10
364.4
 20
201.65
 30
0.0
 11
364.4
 21
195.65
 31
0.0
  0
CIRCLE
  5
15D
330
20
100
AcDbEntity
  8
2
  6
Continuous
 62
     3
100
AcDbCircle
 10
370.25
 20
201.65
 30
0.0
 40
4.0
  0
LINE
  5
15E
330
20
100
AcDbEntity
  8
2
  6
Continuous
 62
     3
100
AcDbLine
 10
369.694186634
 20
201.42400995
 30
0.0
 11
371.183741285
 21
197.760510675
 31
0.0
  0
LINE
  5
15F
330
20
100
AcDbEntity
  8
2
  6
Continuous
 62
     3
100
AcDbLine
 10
370.805813366
 20
201.87599005
 30
0.0
 11
372.295368016
 21
198.212490774
 31
0.0
  0
LINE
  5
160
330
20
100
AcDbEntity
  8
2
  6
Continuous
 62
     3
100
AcDbLine
 10
370.805813366
 20
201.87599005
 30
0.0
 11
369.316258715
 21
205.539489325
 31
0.0
  0
LINE
  5
161
330
20
100
AcDbEntity
  8
2
  6
Continuous
 62
     3
100
AcDbLine
 10
369.694186634
 20
201.42400995
 30
0.0
 11
368.204631984
 21
205.087509226
 31
0.0
  0
LINE
  5
162
330
20
100
AcDbEntity
  8
2
  6
Continuous
 62
     3
100
AcDbLine
 10
369.65
 20
195.65
 30
0.0
 11
369.65
 21
161.65
 31
0.0
  0
LINE
  5
163
330
20
100
AcDbEntity
  8
2
  6
Continuous
 62
     3
100
AcDbLine
 10
369.65
 20
215.5
 30
0.0
 11
369.65
 21
207.65
 31
0.0
  0
LINE
  5
164
330
20
100
AcDbEntity
  8
2
  6
Continuous
 62
     3
100
AcDbLine
 10
374.05
 20
195.65
 30
0.0
 11
374.05
 21
161.65
 31
0.0
  0
LINE
  5
165
330
20
100
AcDbEntity
  8
2
  6
Continuous
 62
     3
100
AcDbLine
 10
374.05
 20
211.65
 30
0.0
 11
374.05
 21
208.1
 31
0.0
  0
LINE
  5
166
330
20
100
AcDbEntity
  8
2
  6
Continuous
 62
     3
100
AcDbLine
 10
335.65
 20
126.047228406
 30
0.0
 11
312.65
 21
126.047228406
 31
0.0
  0
ARC
  5
167
330
20
100
AcDbEntity
  8
2
  6
Continuous
 62
     3
100
AcDbCircle
 10
335.65
 20
127.047228406
 30
0.0
 40
1.0
100
AcDbArc
 50
270.0
 51
0.0
  0
LINE
  5
168
330
20
100
AcDbEntity
  8
2
  6
Continuous
 62
     3
100
AcDbLine
 10
312.65
 20
135.755432338
 30
0.0
 11
335.65
 21
135.755432338
 31
0.0
  0
LINE
  5
169
330
20
100
AcDbEntity
  8
2
  6
Continuous
 62
     3
100
AcDbLine
 10
336.65
 20
134.755432338
 30
0.0
 11
336.65
 21
127.047228406
 31
0.0
  0
ARC
  5
16A
330
20
100
AcDbEntity
  8
2
  6
Continuous
 62
     3
100
AcDbCircle
 10
335.65
 20
134.755432338
 30
0.0
 40
1.0
100
AcDbArc
 50
0.0
 51
90.0
  0
LINE
  5
16B
330
20
100
AcDbEntity
  8
2
  6
Continuous
 62
     3
100
AcDbLine
 10
312.65
 20
155.65
 30
0.0
 11
335.65
 21
155.65
 31
0.0
  0
LINE
  5
16C
330
20
100
AcDbEntity
  8
2
  6
Continuous
 62
     3
100
AcDbLine
 10
336.65
 20
156.65
 30
0.0
 11
336.65
 21
161.65
 31
0.0
  0
ARC
  5
16D
330
20
100
AcDbEntity
  8
2
  6
Continuous
 62
     3
100
AcDbCircle
 10
335.65
 20
156.65
 30
0.0
 40
1.0
100
AcDbArc
 50
270.0
 51
0.0
  0
LINE
  5
16E
330
20
100
AcDbEntity
  8
2
  6
Continuous
 62
     3
100
AcDbLine
 10
312.65
 20
167.65
 30
0.0
 11
335.65
 21
167.65
 31
0.0
  0
LINE
  5
16F
330
20
100
AcDbEntity
  8
2
  6
Continuous
 62
     3
100
AcDbLine
 10
336.65
 20
166.65
 30
0.0
 11
336.65
 21
161.65
 31
0.0
  0
ARC
  5
170
330
20
100
AcDbEntity
  8
2
  6
Continuous
 62
     3
100
AcDbCircle
 10
335.65
 20
166.65
 30
0.0
 40
1.0
100
AcDbArc
 50
0.0
 51
90.0
  0
LINE
  5
171
330
20
100
AcDbEntity
  8
2
  6
Continuous
 62
     3
100
AcDbLine
 10
312.65
 20
187.544567662
 30
0.0
 11
335.65
 21
187.544567662
 31
0.0
  0
ARC
  5
172
330
20
100
AcDbEntity
  8
2
  6
Continuous
 62
     3
100
AcDbCircle
 10
335.65
 20
188.544567662
 30
0.0
 40
1.0
100
AcDbArc
 50
270.0
 51
0.0
  0
LINE
  5
173
330
20
100
AcDbEntity
  8
2
  6
Continuous
 62
     3
100
AcDbLine
 10
335.65
 20
197.252771594
 30
0.0
 11
312.65
 21
197.252771594
 31
0.0
  0
LINE
  5
174
330
20
100
AcDbEntity
  8
2
  6
Continuous
 62
     3
100
AcDbLine
 10
336.65
 20
188.544567662
 30
0.0
 11
336.65
 21
196.252771594
 31
0.0
  0
ARC
  5
175
330
20
100
AcDbEntity
  8
2
  6
Continuous
 62
     3
100
AcDbCircle
 10
335.65
 20
196.252771594
 30
0.0
 40
1.0
100
AcDbArc
 50
0.0
 51
90.0
  0
LINE
  5
176
330
20
100
AcDbEntity
  8
2
  6
Continuous
 62
     3
100
AcDbLine
 10
394.25
 20
79.65
 30
0.0
 11
385.65
 21
79.65
 31
0.0
  0
LINE
  5
177
330
20
100
AcDbEntity
  8
2
  6
Continuous
 62
     3
100
AcDbLine
 10
393.65
 20
79.65
 30
0.0
 11
393.65
 21
86.65
 31
0.0
  0
LINE
  5
178
330
20
100
AcDbEntity
  8
2
  6
Continuous
 62
     3
100
AcDbLine
 10
394.15
 20
86.65
 30
0.0
 11
385.65
 21
86.65
 31
0.0
  0
LINE
  5
179
330
20
100
AcDbEntity
  8
2
  6
Continuous
 62
     3
100
AcDbLine
 10
394.15
 20
86.65
 30
0.0
 11
396.15
 21
88.65
 31
0.0
  0
LINE
  5
17A
330
20
100
AcDbEntity
  8
2
  6
Continuous
 62
     3
100
AcDbLine
 10
377.05
 20
79.65
 30
0.0
 11
385.65
 21
79.65
 31
0.0
  0
LINE
  5
17B
330
20
100
AcDbEntity
  8
2
  6
Continuous
 62
     3
100
AcDbLine
 10
377.65
 20
79.65
 30
0.0
 11
377.65
 21
86.65
 31
0.0
  0
LINE
  5
17C
330
20
100
AcDbEntity
  8
2
  6
Continuous
 62
     3
100
AcDbLine
 10
377.15
 20
86.65
 30
0.0
 11
385.65
 21
86.65
 31
0.0
  0
LINE
  5
17D
330
20
100
AcDbEntity
  8
2
  6
Continuous
 62
     3
100
AcDbLine
 10
377.15
 20
86.65
 30
0.0
 11
375.15
 21
88.65
 31
0.0
  0
ARC
  5
17E
330
20
100
AcDbEntity
  8
2
  6
Continuous
 62
     3
100
AcDbCircle
 10
390.95
 20
83.75
 30
0.0
 40
12.1
100
AcDbArc
 50
244.2
 51
295.8
  0
ARC
  5
17F
330
20
100
AcDbEntity
  8
2
  6
Continuous
 62
     3
100
AcDbCircle
 10
380.35
 20
83.75
 30
0.0
 40
12.1
100
AcDbArc
 50
244.2
 51
295.8
  0
LINE
  5
180
330
20
100
AcDbEntity
  8
2
  6
Continuous
 62
     3
100
AcDbLine
 10
385.65
 20
76.45
 30
0.0
 11
385.65
 21
72.85
 31
0.0
  0
ARC
  5
181
330
20
100
AcDbEntity
  8
2
  6
Continuous
 62
     3
100
AcDbCircle
 10
380.35
 20
65.54999999999999
 30
0.0
 40
12.1
100
AcDbArc
 50
64.2
 51
115.8
  0
ARC
  5
182
330
20
100
AcDbEntity
  8
2
  6
Continuous
 62
     3
100
AcDbCircle
 10
391.05
 20
65.04999999999999
 30
0.0
 40
12.6
100
AcDbArc
 50
65.8
 51
115.2
  0
LINE
  5
183
330
20
100
AcDbEntity
  8
2
  6
Continuous
 62
     3
100
AcDbLine
 10
375.083703698
 20
77.65
 30
0.0
 11
391.050003815
 21
77.65
 31
0.0
  0
LINE
  5
184
330
20
100
AcDbEntity
  8
2
  6
Continuous
 62
     3
100
AcDbLine
 10
396.216296302
 20
77.65
 30
0.0
 11
380.249996185
 21
77.65
 31
0.0
  0
LWPOLYLINE
  5
185
330
20
100
AcDbEntity
  8
2
  6
Continuous
 62
     3
100
AcDbPolyline
 90
        3
 70
     0
 43
0.0
 10
403.65
 20
101.65
 10
403.5499999999999
 20
101.65
 10
403.1499999999999
 20
102.05
  0
LINE
  5
18A
330
20
100
AcDbEntity
  8
2
  6
Continuous
 62
     3
100
AcDbLine
 10
385.65
 20
98.65000000000001
 30
0.0
 11
403.1499999999999
 21
98.65000000000001
 31
0.0
  0
LINE
  5
18B
330
20
100
AcDbEntity
  8
2
  6
Continuous
 62
     3
100
AcDbLine
 10
403.65
 20
99.15
 30
0.0
 11
403.65
 21
101.65
 31
0.0
  0
LINE
  5
18C
330
20
100
AcDbEntity
  8
2
  6
Continuous
 62
     3
100
AcDbLine
 10
403.1499999999999
 20
98.65000000000001
 30
0.0
 11
403.65
 21
99.15
 31
0.0
  0
LINE
  5
18D
330
20
100
AcDbEntity
  8
2
  6
Continuous
 62
     3
100
AcDbLine
 10
385.65
 20
101.65
 30
0.0
 11
403.65
 21
101.65
 31
0.0
  0
LINE
  5
18E
330
20
100
AcDbEntity
  8
2
  6
Continuous
 62
     3
100
AcDbLine
 10
385.65
 20
94.65000000000001
 30
0.0
 11
404.15
 21
94.65000000000001
 31
0.0
  0
LINE
  5
18F
330
20
100
AcDbEntity
  8
2
  6
Continuous
 62
     3
100
AcDbLine
 10
404.15
 20
94.65000000000001
 30
0.0
 11
404.15
 21
98.65000000000001
 31
0.0
  0
LINE
  5
190
330
20
100
AcDbEntity
  8
2
  6
Continuous
 62
     3
100
AcDbLine
 10
404.15
 20
98.65000000000001
 30
0.0
 11
403.1499999999999
 21
98.65000000000001
 31
0.0
  0
LINE
  5
191
330
20
100
AcDbEntity
  8
2
  6
Continuous
 62
     3
100
AcDbLine
 10
367.65
 20
101.65
 30
0.0
 11
367.75
 21
101.65
 31
0.0
  0
LINE
  5
192
330
20
100
AcDbEntity
  8
2
  6
Continuous
 62
     3
100
AcDbLine
 10
367.75
 20
101.65
 30
0.0
 11
368.15
 21
102.05
 31
0.0
  0
LINE
  5
193
330
20
100
AcDbEntity
  8
2
  6
Continuous
 62
     3
100
AcDbLine
 10
385.65
 20
98.65000000000001
 30
0.0
 11
368.15
 21
98.65000000000001
 31
0.0
  0
LINE
  5
194
330
20
100
AcDbEntity
  8
2
  6
Continuous
 62
     3
100
AcDbLine
 10
367.65
 20
99.15
 30
0.0
 11
367.65
 21
101.65
 31
0.0
  0
LINE
  5
195
330
20
100
AcDbEntity
  8
2
  6
Continuous
 62
     3
100
AcDbLine
 10
368.15
 20
98.65000000000001
 30
0.0
 11
367.65
 21
99.15
 31
0.0
  0
LINE
  5
196
330
20
100
AcDbEntity
  8
2
  6
Continuous
 62
     3
100
AcDbLine
 10
367.65
 20
101.65
 30
0.0
 11
385.65
 21
101.65
 31
0.0
  0
LINE
  5
197
330
20
100
AcDbEntity
  8
2
  6
Continuous
 62
     3
100
AcDbLine
 10
385.65
 20
94.65000000000001
 30
0.0
 11
367.15
 21
94.65000000000001
 31
0.0
  0
LINE
  5
198
330
20
100
AcDbEntity
  8
2
  6
Continuous
 62
     3
100
AcDbLine
 10
367.15
 20
94.65000000000001
 30
0.0
 11
367.15
 21
98.65000000000001
 31
0.0
  0
LINE
  5
199
330
20
100
AcDbEntity
  8
2
  6
Continuous
 62
     3
100
AcDbLine
 10
367.15
 20
98.65000000000001
 30
0.0
 11
368.15
 21
98.65000000000001
 31
0.0
  0
LINE
  5
19A
330
20
100
AcDbEntity
  8
2
  6
Continuous
 62
     3
100
AcDbLine
 10
403.1499999999999
 20
102.05
 30
0.0
 11
368.15
 21
102.05
 31
0.0
  0
LINE
  5
19B
330
20
100
AcDbEntity
  8
2
  6
Continuous
 62
     3
100
AcDbLine
 10
403.1499999999999
 20
111.65
 30
0.0
 11
414.6499999999999
 21
111.65
 31
0.0
  0
LINE
  5
19C
330
20
100
AcDbEntity
  8
2
  6
Continuous
 62
     3
100
AcDbLine
 10
403.1499999999999
 20
102.05
 30
0.0
 11
403.1499999999999
 21
111.65
 31
0.0
  0
LINE
  5
19D
330
20
100
AcDbEntity
  8
2
  6
Continuous
 62
     3
100
AcDbLine
 10
368.15
 20
102.05
 30
0.0
 11
368.15
 21
106.65
 31
0.0
  0
ARC
  5
19E
330
20
100
AcDbEntity
  8
2
  6
Continuous
 62
     3
100
AcDbCircle
 10
388.440968586
 20
89.613219895
 30
0.0
 40
26.494816144
100
AcDbArc
 50
56.27782397399999
 51
139.982380734
  0
LINE
  5
19F
330
20
100
AcDbEntity
  8
2
  6
Continuous
 62
     3
100
AcDbLine
 10
369.65
 20
108.291409907
 30
0.0
 11
369.65
 21
161.65
 31
0.0
  0
LINE
  5
1A0
330
20
100
AcDbEntity
  8
2
  6
Continuous
 62
     3
100
AcDbLine
 10
374.05
 20
111.859012883
 30
0.0
 11
374.05
 21
161.65
 31
0.0
  0
LINE
  5
1A1
330
20
100
AcDbEntity
  8
2
  6
Continuous
 62
     3
100
AcDbLine
 10
362.65
 20
216.65
 30
0.0
 11
313.65
 21
216.65
 31
0.0
  0
LINE
  5
1A2
330
20
100
AcDbEntity
  8
2
  6
Continuous
 62
     3
100
AcDbLine
 10
362.65
 20
216.65
 30
0.0
 11
368.745867871
 21
216.65
 31
0.0
  0
LINE
  5
1A3
330
20
100
AcDbEntity
  8
2
  6
Continuous
 62
     3
100
AcDbLine
 10
362.65
 20
106.65
 30
0.0
 11
313.65
 21
106.65
 31
0.0
  0
LINE
  5
1A4
330
20
100
AcDbEntity
  8
2
  6
Continuous
 62
     3
100
AcDbLine
 10
362.65
 20
106.65
 30
0.0
 11
368.15
 21
106.65
 31
0.0
  0
LINE
  5
1A5
330
20
100
AcDbEntity
  8
2
  6
Continuous
 62
     3
100
AcDbLine
 10
362.65
 20
106.65
 30
0.0
 11
362.65
 21
161.65
 31
0.0
  0
LINE
  5
1A6
330
20
100
AcDbEntity
  8
2
  6
Continuous
 62
     3
100
AcDbLine
 10
362.65
 20
161.65
 30
0.0
 11
362.65
 21
216.65
 31
0.0
  0
LINE
  5
1A7
330
20
100
AcDbEntity
  8
2
  6
Continuous
 62
     3
100
AcDbLine
 10
377.05
 20
71.65
 30
0.0
 11
377.05
 21
79.65
 31
0.0
  0
LINE
  5
1A8
330
20
100
AcDbEntity
  8
2
  6
Continuous
 62
     3
100
AcDbLine
 10
394.25
 20
71.65
 30
0.0
 11
394.25
 21
79.65
 31
0.0
  0
LINE
  5
1A9
330
20
100
AcDbEntity
  8
2
  6
Continuous
 62
     3
100
AcDbLine
 10
375.1551
 20
71.65
 30
0.0
 11
396.216296302
 21
71.65
 31
0.0
  0
LINE
  5
1AA
330
20
100
AcDbEntity
  8
2
  6
Continuous
 62
     3
100
AcDbLine
 10
396.216296302
 20
77.65
 30
0.0
 11
396.216296302
 21
71.65
 31
0.0
  0
LINE
  5
1AB
330
20
100
AcDbEntity
  8
2
  6
Continuous
 62
     3
100
AcDbLine
 10
375.083703698
 20
71.65
 30
0.0
 11
396.15
 21
71.65
 31
0.0
  0
LINE
  5
1AC
330
20
100
AcDbEntity
  8
2
  6
Continuous
 62
     3
100
AcDbLine
 10
375.083703698
 20
77.65
 30
0.0
 11
375.083703698
 21
71.65
 31
0.0
  0
LINE
  5
1AD
330
20
100
AcDbEntity
  8
2
  6
Continuous
 62
     3
100
AcDbLine
 10
396.15
 20
88.65
 30
0.0
 11
396.15
 21
94.65000000000001
 31
0.0
  0
LINE
  5
1AE
330
20
100
AcDbEntity
  8
2
  6
Continuous
 62
     3
100
AcDbLine
 10
375.15
 20
88.65
 30
0.0
 11
375.15
 21
94.65000000000001
 31
0.0
  0
LINE
  5
1AF
330
20
100
AcDbEntity
  8
2
  6
Continuous
 62
     3
100
AcDbLine
 10
176.35
 20
393.25
 30
0.0
 11
221.35
 21
393.25
 31
0.0
  0
ARC
  5
1B0
330
20
100
AcDbEntity
  8
2
  6
Continuous
 62
     3
100
AcDbCircle
 10
221.35
 20
388.25
 30
0.0
 40
5.0
100
AcDbArc
 50
0.0
 51
90.0
  0
LINE
  5
1B1
330
20
100
AcDbEntity
  8
2
  6
Continuous
 62
     3
100
AcDbLine
 10
248.85
 20
393.25
 30
0.0
 11
221.85
 21
393.25
 31
0.0
  0
LINE
  5
1B2
330
20
100
AcDbEntity
  8
2
  6
Continuous
 62
     3
100
AcDbLine
 10
248.85
 20
393.25
 30
0.0
 11
248.85
 21
386.75
 31
0.0
  0
LINE
  5
1B3
330
20
100
AcDbEntity
  8
2
  6
Continuous
 62
     3
100
AcDbLine
 10
248.35
 20
386.25
 30
0.0
 11
226.35
 21
386.25
 31
0.0
  0
LINE
  5
1B4
330
20
100
AcDbEntity
  8
2
  6
Continuous
 62
     3
100
AcDbLine
 10
248.85
 20
386.75
 30
0.0
 11
248.35
 21
386.25
 31
0.0
  0
LINE
  5
1B5
330
20
100
AcDbEntity
  8
2
  6
Continuous
 62
     3
100
AcDbLine
 10
230.35
 20
286.25
 30
0.0
 11
176.35
 21
286.25
 31
0.0
  0
LINE
  5
1B6
330
20
100
AcDbEntity
  8
2
  6
Continuous
 62
     3
100
AcDbLine
 10
231.35
 20
287.25
 30
0.0
 11
230.35
 21
286.25
 31
0.0
  0
LINE
  5
1B7
330
20
100
AcDbEntity
  8
2
  6
Continuous
 62
     3
100
AcDbLine
 10
230.67125579
 20
343.847294905
 30
0.0
 11
226.35
 21
347.65
 31
0.0
  0
LINE
  5
1B8
330
20
100
AcDbEntity
  8
2
  6
Continuous
 62
     3
100
AcDbLine
 10
231.35
 20
342.345867871
 30
0.0
 11
230.67125579
 21
343.847294905
 31
0.0
  0
LINE
  5
1B9
330
20
100
AcDbEntity
  8
2
  6
Continuous
 62
     3
100
AcDbLine
 10
176.35
 20
393.25
 30
0.0
 11
131.35
 21
393.25
 31
0.0
  0
ARC
  5
1BA
330
20
100
AcDbEntity
  8
2
  6
Continuous
 62
     3
100
AcDbCircle
 10
131.35
 20
388.25
 30
0.0
 40
5.0
100
AcDbArc
 50
90.0
 51
180.0
  0
LINE
  5
1BB
330
20
100
AcDbEntity
  8
2
  6
Continuous
 62
     3
100
AcDbLine
 10
103.85
 20
393.25
 30
0.0
 11
130.85
 21
393.25
 31
0.0
  0
LINE
  5
1BC
330
20
100
AcDbEntity
  8
2
  6
Continuous
 62
     3
100
AcDbLine
 10
103.85
 20
393.25
 30
0.0
 11
103.85
 21
386.75
 31
0.0
  0
LINE
  5
1BD
330
20
100
AcDbEntity
  8
2
  6
Continuous
 62
     3
100
AcDbLine
 10
104.35
 20
386.25
 30
0.0
 11
126.35
 21
386.25
 31
0.0
  0
LINE
  5
1BE
330
20
100
AcDbEntity
  8
2
  6
Continuous
 62
     3
100
AcDbLine
 10
103.85
 20
386.75
 30
0.0
 11
104.35
 21
386.25
 31
0.0
  0
LINE
  5
1BF
330
20
100
AcDbEntity
  8
2
  6
Continuous
 62
     3
100
AcDbLine
 10
122.35
 20
286.25
 30
0.0
 11
176.35
 21
286.25
 31
0.0
  0
LINE
  5
1C0
330
20
100
AcDbEntity
  8
2
  6
Continuous
 62
     3
100
AcDbLine
 10
121.35
 20
287.25
 30
0.0
 11
122.35
 21
286.25
 31
0.0
  0
LINE
  5
1C1
330
20
100
AcDbEntity
  8
2
  6
Continuous
 62
     3
100
AcDbLine
 10
122.02874421
 20
343.847294905
 30
0.0
 11
126.35
 21
347.65
 31
0.0
  0
LINE
  5
1C2
330
20
100
AcDbEntity
  8
2
  6
Continuous
 62
     3
100
AcDbLine
 10
121.35
 20
342.345867871
 30
0.0
 11
122.02874421
 21
343.847294905
 31
0.0
  0
LWPOLYLINE
  5
1C3
330
20
100
AcDbEntity
  8
2
  6
Continuous
 62
     3
100
AcDbPolyline
 90
        3
 70
     0
 43
0.0
 10
118.85
 20
368.25
 10
118.85
 20
351.25
 10
119.35
 20
350.75
  0
LWPOLYLINE
  5
1C8
330
20
100
AcDbEntity
  8
2
  6
Continuous
 62
     3
100
AcDbPolyline
 90
        3
 70
     0
 43
0.0
 10
118.85
 20
368.25
 10
118.85
 20
385.25
 10
119.35
 20
385.75
  0
LWPOLYLINE
  5
1CD
330
20
100
AcDbEntity
  8
2
  6
Continuous
 62
     3
100
AcDbPolyline
 90
        3
 70
     0
 43
0.0
 10
233.85
 20
368.25
 10
233.85
 20
351.25
 10
233.35
 20
350.75
  0
LWPOLYLINE
  5
1D2
330
20
100
AcDbEntity
  8
2
  6
Continuous
 62
     3
100
AcDbPolyline
 90
        3
 70
     0
 43
0.0
 10
233.85
 20
368.25
 10
233.85
 20
385.25
 10
233.35
 20
385.75
  0
LINE
  5
1D7
330
20
100
AcDbEntity
  8
2
  6
Continuous
 62
     3
100
AcDbLine
 10
211.952771594
 20
309.25
 30
0.0
 11
211.952771594
 21
286.25
 31
0.0
  0
ARC
  5
1D8
330
20
100
AcDbEntity
  8
2
  6
Continuous
 62
     3
100
AcDbCircle
 10
210.952771594
 20
309.25
 30
0.0
 40
1.0
100
AcDbArc
 50
0.0
 51
90.0
  0
LINE
  5
1D9
330
20
100
AcDbEntity
  8
2
  6
Continuous
 62
     3
100
AcDbLine
 10
202.244567662
 20
286.25
 30
0.0
 11
202.244567662
 21
309.25
 31
0.0
  0
LINE
  5
1DA
330
20
100
AcDbEntity
  8
2
  6
Continuous
 62
     3
100
AcDbLine
 10
203.244567662
 20
310.25
 30
0.0
 11
210.952771594
 21
310.25
 31
0.0
  0
ARC
  5
1DB
330
20
100
AcDbEntity
  8
2
  6
Continuous
 62
     3
100
AcDbCircle
 10
203.244567662
 20
309.25
 30
0.0
 40
1.0
100
AcDbArc
 50
90.0
 51
180.0
  0
LINE
  5
1DC
330
20
100
AcDbEntity
  8
2
  6
Continuous
 62
     3
100
AcDbLine
 10
182.35
 20
286.25
 30
0.0
 11
182.35
 21
309.25
 31
0.0
  0
LINE
  5
1DD
330
20
100
AcDbEntity
  8
2
  6
Continuous
 62
     3
100
AcDbLine
 10
181.35
 20
310.25
 30
0.0
 11
176.35
 21
310.25
 31
0.0
  0
ARC
  5
1DE
330
20
100
AcDbEntity
  8
2
  6
Continuous
 62
     3
100
AcDbCircle
 10
181.35
 20
309.25
 30
0.0
 40
1.0
100
AcDbArc
 50
0.0
 51
90.0
  0
LINE
  5
1DF
330
20
100
AcDbEntity
  8
2
  6
Continuous
 62
     3
100
AcDbLine
 10
170.35
 20
286.25
 30
0.0
 11
170.35
 21
309.25
 31
0.0
  0
LINE
  5
1E0
330
20
100
AcDbEntity
  8
2
  6
Continuous
 62
     3
100
AcDbLine
 10
171.35
 20
310.25
 30
0.0
 11
176.35
 21
310.25
 31
0.0
  0
ARC
  5
1E1
330
20
100
AcDbEntity
  8
2
  6
Continuous
 62
     3
100
AcDbCircle
 10
171.35
 20
309.25
 30
0.0
 40
1.0
100
AcDbArc
 50
90.0
 51
180.0
  0
LINE
  5
1E2
330
20
100
AcDbEntity
  8
2
  6
Continuous
 62
     3
100
AcDbLine
 10
150.455432338
 20
286.25
 30
0.0
 11
150.455432338
 21
309.25
 31
0.0
  0
ARC
  5
1E3
330
20
100
AcDbEntity
  8
2
  6
Continuous
 62
     3
100
AcDbCircle
 10
149.455432338
 20
309.25
 30
0.0
 40
1.0
100
AcDbArc
 50
0.0
 51
90.0
  0
LINE
  5
1E4
330
20
100
AcDbEntity
  8
2
  6
Continuous
 62
     3
100
AcDbLine
 10
140.747228406
 20
309.25
 30
0.0
 11
140.747228406
 21
286.25
 31
0.0
  0
LINE
  5
1E5
330
20
100
AcDbEntity
  8
2
  6
Continuous
 62
     3
100
AcDbLine
 10
149.455432338
 20
310.25
 30
0.0
 11
141.747228406
 21
310.25
 31
0.0
  0
ARC
  5
1E6
330
20
100
AcDbEntity
  8
2
  6
Continuous
 62
     3
100
AcDbCircle
 10
141.747228406
 20
309.25
 30
0.0
 40
1.0
100
AcDbArc
 50
90.0
 51
180.0
  0
LINE
  5
1E7
330
20
100
AcDbEntity
  8
2
  6
Continuous
 62
     3
100
AcDbLine
 10
127.655432338
 20
286.25
 30
0.0
 11
127.655432338
 21
309.25
 31
0.0
  0
ARC
  5
1E8
330
20
100
AcDbEntity
  8
2
  6
Continuous
 62
     3
100
AcDbCircle
 10
126.655432338
 20
309.25
 30
0.0
 40
1.0
100
AcDbArc
 50
0.0
 51
90.0
  0
LINE
  5
1E9
330
20
100
AcDbEntity
  8
2
  6
Continuous
 62
     3
100
AcDbLine
 10
124.055432338
 20
309.25
 30
0.0
 11
124.055432338
 21
286.25
 31
0.0
  0
LINE
  5
1EA
330
20
100
AcDbEntity
  8
2
  6
Continuous
 62
     3
100
AcDbLine
 10
126.655432338
 20
310.25
 30
0.0
 11
125.055432338
 21
310.25
 31
0.0
  0
ARC
  5
1EB
330
20
100
AcDbEntity
  8
2
  6
Continuous
 62
     3
100
AcDbCircle
 10
125.055432338
 20
309.25
 30
0.0
 40
1.0
100
AcDbArc
 50
90.0
 51
180.0
  0
LINE
  5
1EC
330
20
100
AcDbEntity
  8
2
  6
Continuous
 62
     3
100
AcDbLine
 10
225.044567662
 20
286.25
 30
0.0
 11
225.044567662
 21
309.25
 31
0.0
  0
ARC
  5
1ED
330
20
100
AcDbEntity
  8
2
  6
Continuous
 62
     3
100
AcDbCircle
 10
226.044567662
 20
309.25
 30
0.0
 40
1.0
100
AcDbArc
 50
90.0
 51
180.0
  0
LINE
  5
1EE
330
20
100
AcDbEntity
  8
2
  6
Continuous
 62
     3
100
AcDbLine
 10
228.644567662
 20
309.25
 30
0.0
 11
228.644567662
 21
286.25
 31
0.0
  0
LINE
  5
1EF
330
20
100
AcDbEntity
  8
2
  6
Continuous
 62
     3
100
AcDbLine
 10
226.044567662
 20
310.25
 30
0.0
 11
227.644567662
 21
310.25
 31
0.0
  0
ARC
  5
1F0
330
20
100
AcDbEntity
  8
2
  6
Continuous
 62
     3
100
AcDbCircle
 10
227.644567662
 20
309.25
 30
0.0
 40
1.0
100
AcDbArc
 50
0.0
 51
90.0
  0
LINE
  5
1F1
330
20
100
AcDbEntity
  8
2
  6
Continuous
 62
     3
100
AcDbLine
 10
126.35
 20
385.75
 30
0.0
 11
126.35
 21
388.25
 31
0.0
  0
LINE
  5
1F2
330
20
100
AcDbEntity
  8
2
  6
Continuous
 62
     3
100
AcDbLine
 10
126.35
 20
347.65
 30
0.0
 11
126.35
 21
350.75
 31
0.0
  0
LINE
  5
1F3
330
20
100
AcDbEntity
  8
2
  6
Continuous
 62
     3
100
AcDbLine
 10
226.35
 20
385.75
 30
0.0
 11
226.35
 21
388.25
 31
0.0
  0
LINE
  5
1F4
330
20
100
AcDbEntity
  8
2
  6
Continuous
 62
     3
100
AcDbLine
 10
226.35
 20
347.65
 30
0.0
 11
226.35
 21
350.75
 31
0.0
  0
LINE
  5
1F5
330
20
100
AcDbEntity
  8
2
  6
Continuous
 62
     3
100
AcDbLine
 10
176.35
 20
388.25
 30
0.0
 11
141.35
 21
388.25
 31
0.0
  0
LINE
  5
1F6
330
20
100
AcDbEntity
  8
2
  6
Continuous
 62
     3
100
AcDbLine
 10
141.35
 20
388.25
 30
0.0
 11
141.35
 21
368.25
 31
0.0
  0
LINE
  5
1F7
330
20
100
AcDbEntity
  8
2
  6
Continuous
 62
     3
100
AcDbLine
 10
176.35
 20
388.25
 30
0.0
 11
211.35
 21
388.25
 31
0.0
  0
LINE
  5
1F8
330
20
100
AcDbEntity
  8
2
  6
Continuous
 62
     3
100
AcDbLine
 10
211.35
 20
388.25
 30
0.0
 11
211.35
 21
368.25
 31
0.0
  0
LINE
  5
1F9
330
20
100
AcDbEntity
  8
2
  6
Continuous
 62
     3
100
AcDbLine
 10
119.35
 20
385.75
 30
0.0
 11
141.35
 21
385.75
 31
0.0
  0
LINE
  5
1FA
330
20
100
AcDbEntity
  8
2
  6
Continuous
 62
     3
100
AcDbLine
 10
233.35
 20
385.75
 30
0.0
 11
211.35
 21
385.75
 31
0.0
  0
LINE
  5
1FB
330
20
100
AcDbEntity
  8
2
  6
Continuous
 62
     3
100
AcDbLine
 10
176.35
 20
348.25
 30
0.0
 11
141.35
 21
348.25
 31
0.0
  0
LINE
  5
1FC
330
20
100
AcDbEntity
  8
2
  6
Continuous
 62
     3
100
AcDbLine
 10
141.35
 20
348.25
 30
0.0
 11
141.35
 21
368.25
 31
0.0
  0
LINE
  5
1FD
330
20
100
AcDbEntity
  8
2
  6
Continuous
 62
     3
100
AcDbLine
 10
176.35
 20
348.25
 30
0.0
 11
211.35
 21
348.25
 31
0.0
  0
LINE
  5
1FE
330
20
100
AcDbEntity
  8
2
  6
Continuous
 62
     3
100
AcDbLine
 10
211.35
 20
348.25
 30
0.0
 11
211.35
 21
368.25
 31
0.0
  0
LINE
  5
1FF
330
20
100
AcDbEntity
  8
2
  6
Continuous
 62
     3
100
AcDbLine
 10
119.35
 20
350.75
 30
0.0
 11
141.35
 21
350.75
 31
0.0
  0
LINE
  5
200
330
20
100
AcDbEntity
  8
2
  6
Continuous
 62
     3
100
AcDbLine
 10
233.35
 20
350.75
 30
0.0
 11
211.35
 21
350.75
 31
0.0
  0
LINE
  5
201
330
20
100
AcDbEntity
  8
2
  6
Continuous
 62
     3
100
AcDbLine
 10
126.35
 20
347.65
 30
0.0
 11
176.35
 21
347.65
 31
0.0
  0
LINE
  5
202
330
20
100
AcDbEntity
  8
2
  6
Continuous
 62
     3
100
AcDbLine
 10
122.5
 20
343.25
 30
0.0
 11
176.35
 21
343.25
 31
0.0
  0
LINE
  5
203
330
20
100
AcDbEntity
  8
2
  6
Continuous
 62
     3
100
AcDbLine
 10
226.35
 20
347.65
 30
0.0
 11
176.35
 21
347.65
 31
0.0
  0
LINE
  5
204
330
20
100
AcDbEntity
  8
2
  6
Continuous
 62
     3
100
AcDbLine
 10
230.2
 20
343.25
 30
0.0
 11
176.35
 21
343.25
 31
0.0
  0
LINE
  5
205
330
20
100
AcDbEntity
  8
2
  6
Continuous
 62
     3
100
AcDbLine
 10
121.35
 20
336.25
 30
0.0
 11
121.35
 21
287.25
 31
0.0
  0
LINE
  5
206
330
20
100
AcDbEntity
  8
2
  6
Continuous
 62
     3
100
AcDbLine
 10
231.35
 20
336.25
 30
0.0
 11
231.35
 21
287.25
 31
0.0
  0
LINE
  5
207
330
20
100
AcDbEntity
  8
2
  6
Continuous
 62
     3
100
AcDbLine
 10
231.35
 20
336.25
 30
0.0
 11
231.35
 21
342.345867871
 31
0.0
  0
LINE
  5
208
330
20
100
AcDbEntity
  8
2
  6
Continuous
 62
     3
100
AcDbLine
 10
121.35
 20
336.25
 30
0.0
 11
121.35
 21
342.345867871
 31
0.0
  0
LINE
  5
209
330
20
100
AcDbEntity
  8
2
  6
Continuous
 62
     3
100
AcDbLine
 10
121.35
 20
336.25
 30
0.0
 11
176.35
 21
336.25
 31
0.0
  0
LINE
  5
20A
330
20
100
AcDbEntity
  8
2
  6
Continuous
 62
     3
100
AcDbLine
 10
176.35
 20
336.25
 30
0.0
 11
231.35
 21
336.25
 31
0.0
  0
TEXT
  5
20B
330
20
100
AcDbEntity
  8
5
  6
Continuous
 62
     3
100
AcDbText
 10
330.0
 20
292.9375
 30
0.687083333
 40
6.5025
  1
ＴＷＡ－Ｃ－Ｅ
  7
KANJI0
100
AcDbText
  0
TEXT
  5
20C
330
20
100
AcDbEntity
  8
5
  6
Continuous
 62
     3
100
AcDbText
 10
330.0
 20
277.0
 30
0.687083333
 40
6.5025
  1
ＣＡ０３－３－Ｃ－００００Ｅ
  7
KANJI0
100
AcDbText
  0
LINE
  5
20D
330
20
100
AcDbEntity
  8
0
  6
Continuous
 62
     3
100
AcDbLine
 10
405.7995243949999
 20
54.2
 30
0.687083333
 11
395.724762197
 21
71.65
 31
0.687083333
  0
LWPOLYLINE
  5
20E
330
20
100
AcDbEntity
  8
0
  6
Continuous
 62
     3
100
AcDbPolyline
 90
        6
 70
     0
 43
0.0
 10
395.724762197
 20
71.65
 10
375.575237803
 20
71.65
 10
365.500475605
 20
54.2
 10
375.575237803
 20
36.75
 10
395.724762197
 20
36.75
 10
405.7995243949999
 20
54.2
  0
CIRCLE
  5
216
330
20
100
AcDbEntity
  8
0
  6
Continuous
 62
     3
100
AcDbCircle
 10
385.65
 20
54.2
 30
0.0
 40
10.0
  0
CIRCLE
  5
217
330
20
100
AcDbEntity
  8
0
  6
Continuous
 62
     3
100
AcDbCircle
 10
385.65
 20
54.2
 30
0.0
 40
10.849078302
  0
CIRCLE
  5
218
330
20
100
AcDbEntity
  8
0
  6
Continuous
 62
     3
100
AcDbCircle
 10
385.65
 20
48.0
 30
0.0
 40
2.860069928999999
  0
CIRCLE
  5
219
330
20
100
AcDbEntity
  8
0
  6
Continuous
 62
     3
100
AcDbCircle
 10
385.65
 20
54.2
 30
0.0
 40
17.45
  0
LWPOLYLINE
  5
21A
330
20
100
AcDbEntity
  8
0
  6
Continuous
 62
     3
100
AcDbPolyline
 90
        3
 70
     0
 43
0.0
 10
176.35
 20
71.65
 10
213.45
 20
71.65
 10
214.45
 20
70.65000000000001
  0
LINE
  5
21F
330
20
100
AcDbEntity
  8
0
  6
Continuous
 62
     3
100
AcDbLine
 10
213.45
 20
36.75
 30
0.0
 11
176.35
 21
36.75
 31
0.0
  0
LINE
  5
220
330
20
100
AcDbEntity
  8
0
  6
Continuous
 62
     3
100
AcDbLine
 10
214.45
 20
70.65000000000001
 30
0.0
 11
214.45
 21
37.75
 31
0.0
  0
LINE
  5
221
330
20
100
AcDbEntity
  8
0
  6
Continuous
 62
     3
100
AcDbLine
 10
213.45
 20
36.75
 30
0.0
 11
214.45
 21
37.75
 31
0.0
  0
LINE
  5
222
330
20
100
AcDbEntity
  8
0
  6
Continuous
 62
     3
100
AcDbLine
 10
176.35
 20
71.65
 30
0.0
 11
139.25
 21
71.65
 31
0.0
  0
LINE
  5
223
330
20
100
AcDbEntity
  8
0
  6
Continuous
 62
     3
100
AcDbLine
 10
139.25
 20
71.65
 30
0.0
 11
138.25
 21
70.65000000000001
 31
0.0
  0
LINE
  5
224
330
20
100
AcDbEntity
  8
0
  6
Continuous
 62
     3
100
AcDbLine
 10
139.25
 20
36.75
 30
0.0
 11
176.35
 21
36.75
 31
0.0
  0
LINE
  5
225
330
20
100
AcDbEntity
  8
0
  6
Continuous
 62
     3
100
AcDbLine
 10
138.25
 20
70.65000000000001
 30
0.0
 11
138.25
 21
37.75
 31
0.0
  0
LINE
  5
226
330
20
100
AcDbEntity
  8
0
  6
Continuous
 62
     3
100
AcDbLine
 10
139.25
 20
36.75
 30
0.0
 11
138.25
 21
37.75
 31
0.0
  0
TEXT
  5
227
330
20
100
AcDbEntity
  8
5
  6
Continuous
 62
     3
100
AcDbText
 10
334.9
 20
370.25
 30
0.0
 40
8.904999999999999
  1
ＦＴＯ－１　　１／２Ｂ
 41
0.6293592860000001
  7
KANJI1
100
AcDbText
  0
TEXT
  5
228
330
20
100
AcDbEntity
  8
5
  6
Continuous
 62
     3
100
AcDbText
 10
334.9
 20
357.0
 30
0.0
 40
8.904999999999999
  1
ＦＴＯ－２　　１／２Ｂ
 41
0.6293592860000001
  7
KANJI1
100
AcDbText
  0
TEXT
  5
229
330
20
100
AcDbEntity
  8
5
  6
Continuous
 62
     3
100
AcDbText
 10
334.9
 20
343.75
 30
0.0
 40
8.904999999999999
  1
ＦＴＯ－３　　１／２Ｂ
 41
0.6293592860000001
  7
KANJI1
100
AcDbText
  0
TEXT
  5
22A
330
20
100
AcDbEntity
  8
5
  6
Continuous
 62
     3
100
AcDbText
 10
334.9
 20
330.5
 30
0.0
 40
8.904999999999999
  1
ＦＴＯ－４　　１／２Ｂ
 41
0.6293592860000001
  7
KANJI1
100
AcDbText
  0
TEXT
  5
22B
330
20
100
AcDbEntity
  8
5
  6
Continuous
 62
     3
100
AcDbText
 10
334.9
 20
317.25
 30
0.0
 40
8.904999999999999
  1
ＦＴＯ－５　　１／２Ｂ
 41
0.6293592860000001
  7
KANJI1
100
AcDbText
  0
LINE
  5
22C
330
20
100
AcDbEntity
  8
2
  6
LTYPE1
 62
     1
100
AcDbLine
 10
176.35
 20
71.65
 30
0.0
 11
176.35
 21
77.65
 31
0.0
  0
LINE
  5
22D
330
20
100
AcDbEntity
  8
2
  6
LTYPE1
 62
     1
100
AcDbLine
 10
118.1
 20
161.65
 30
0.0
 11
108.6
 21
161.65
 31
0.0
  0
LINE
  5
22E
330
20
100
AcDbEntity
  8
2
  6
LTYPE1
 62
     1
100
AcDbLine
 10
113.35
 20
166.85
 30
0.0
 11
113.35
 21
156.45
 31
0.0
  0
LINE
  5
22F
330
20
100
AcDbEntity
  8
2
  6
LTYPE1
 62
     1
100
AcDbLine
 10
234.6
 20
161.65
 30
0.0
 11
244.1
 21
161.65
 31
0.0
  0
LINE
  5
230
330
20
100
AcDbEntity
  8
2
  6
LTYPE1
 62
     1
100
AcDbLine
 10
239.35
 20
166.85
 30
0.0
 11
239.35
 21
156.45
 31
0.0
  0
LINE
  5
231
330
20
100
AcDbEntity
  8
2
  6
LTYPE1
 62
     1
100
AcDbLine
 10
176.35
 20
91.15
 30
0.0
 11
176.35
 21
105.5
 31
0.0
  0
LINE
  5
232
330
20
100
AcDbEntity
  8
2
  6
LTYPE1
 62
     1
100
AcDbLine
 10
176.35
 20
91.15
 30
0.0
 11
176.35
 21
105.5
 31
0.0
  0
LINE
  5
233
330
20
100
AcDbEntity
  8
2
  6
LTYPE1
 62
     1
100
AcDbLine
 10
241.35
 20
201.65
 30
0.0
 11
216.191905406
 21
201.65
 31
0.0
  0
LINE
  5
234
330
20
100
AcDbEntity
  8
2
  6
LTYPE1
 62
     1
100
AcDbLine
 10
111.35
 20
201.65
 30
0.0
 11
135.491905406
 21
201.65
 31
0.0
  0
LINE
  5
235
330
20
100
AcDbEntity
  8
2
  6
LTYPE1
 62
     1
100
AcDbLine
 10
235.61
 20
201.65
 30
0.0
 11
227.25
 21
201.65
 31
0.0
  0
LINE
  5
236
330
20
100
AcDbEntity
  8
2
  6
LTYPE1
 62
     1
100
AcDbLine
 10
152.35
 20
134.65
 30
0.0
 11
152.35
 21
140.65
 31
0.0
  0
LINE
  5
237
330
20
100
AcDbEntity
  8
2
  6
LTYPE1
 62
     1
100
AcDbLine
 10
149.35
 20
137.65
 30
0.0
 11
155.35
 21
137.65
 31
0.0
  0
LINE
  5
238
330
20
100
AcDbEntity
  8
2
  6
LTYPE1
 62
     1
100
AcDbLine
 10
152.35
 20
182.65
 30
0.0
 11
152.35
 21
188.65
 31
0.0
  0
LINE
  5
239
330
20
100
AcDbEntity
  8
2
  6
LTYPE1
 62
     1
100
AcDbLine
 10
149.35
 20
185.65
 30
0.0
 11
155.35
 21
185.65
 31
0.0
  0
LINE
  5
23A
330
20
100
AcDbEntity
  8
2
  6
LTYPE1
 62
     1
100
AcDbLine
 10
200.35
 20
182.65
 30
0.0
 11
200.35
 21
188.65
 31
0.0
  0
LINE
  5
23B
330
20
100
AcDbEntity
  8
2
  6
LTYPE1
 62
     1
100
AcDbLine
 10
197.35
 20
185.65
 30
0.0
 11
203.35
 21
185.65
 31
0.0
  0
LINE
  5
23C
330
20
100
AcDbEntity
  8
2
  6
LTYPE1
 62
     1
100
AcDbLine
 10
200.35
 20
134.65
 30
0.0
 11
200.35
 21
140.65
 31
0.0
  0
LINE
  5
23D
330
20
100
AcDbEntity
  8
2
  6
LTYPE1
 62
     1
100
AcDbLine
 10
197.35
 20
137.65
 30
0.0
 11
203.35
 21
137.65
 31
0.0
  0
LINE
  5
23E
330
20
100
AcDbEntity
  8
2
  6
LTYPE1
 62
     1
100
AcDbLine
 10
181.3
 20
161.65
 30
0.0
 11
171.4
 21
161.65
 31
0.0
  0
LINE
  5
23F
330
20
100
AcDbEntity
  8
2
  6
LTYPE1
 62
     1
100
AcDbLine
 10
176.35
 20
165.95
 30
0.0
 11
176.35
 21
157.35
 31
0.0
  0
CIRCLE
  5
240
330
20
100
AcDbEntity
  8
2
  6
LTYPE1
 62
     1
100
AcDbCircle
 10
201.85
 20
161.65
 30
0.0
 40
1.5
  0
LINE
  5
241
330
20
100
AcDbEntity
  8
2
  6
LTYPE1
 62
     1
100
AcDbLine
 10
201.85
 20
158.15
 30
0.0
 11
201.85
 21
165.15
 31
0.0
  0
LINE
  5
242
330
20
100
AcDbEntity
  8
2
  6
LTYPE1
 62
     1
100
AcDbLine
 10
198.35
 20
161.65
 30
0.0
 11
205.35
 21
161.65
 31
0.0
  0
CIRCLE
  5
243
330
20
100
AcDbEntity
  8
2
  6
LTYPE1
 62
     1
100
AcDbCircle
 10
150.85
 20
161.65
 30
0.0
 40
1.5
  0
LINE
  5
244
330
20
100
AcDbEntity
  8
2
  6
LTYPE1
 62
     1
100
AcDbLine
 10
150.85
 20
158.15
 30
0.0
 11
150.85
 21
165.15
 31
0.0
  0
LINE
  5
245
330
20
100
AcDbEntity
  8
2
  6
LTYPE1
 62
     1
100
AcDbLine
 10
147.35
 20
161.65
 30
0.0
 11
154.35
 21
161.65
 31
0.0
  0
LINE
  5
246
330
20
100
AcDbEntity
  8
2
  6
LTYPE1
 62
     1
100
AcDbLine
 10
152.35
 20
182.65
 30
0.0
 11
152.35
 21
188.65
 31
0.0
  0
LINE
  5
247
330
20
100
AcDbEntity
  8
2
  6
LTYPE1
 62
     1
100
AcDbLine
 10
155.35
 20
185.65
 30
0.0
 11
149.35
 21
185.65
 31
0.0
  0
LINE
  5
248
330
20
100
AcDbEntity
  8
2
  6
LTYPE1
 62
     1
100
AcDbLine
 10
201.85
 20
165.4
 30
0.0
 11
201.85
 21
157.9
 31
0.0
  0
LINE
  5
249
330
20
100
AcDbEntity
  8
2
  6
LTYPE1
 62
     1
100
AcDbLine
 10
201.7
 20
134.5
 30
0.0
 11
201.7
 21
145.5
 31
0.0
  0
LINE
  5
24A
330
20
100
AcDbEntity
  8
2
  6
LTYPE1
 62
     1
100
AcDbLine
 10
196.2
 20
140.0
 30
0.0
 11
207.2
 21
140.0
 31
0.0
  0
LINE
  5
24B
330
20
100
AcDbEntity
  8
2
  6
LTYPE1
 62
     1
100
AcDbLine
 10
147.35
 20
161.65
 30
0.0
 11
154.35
 21
161.65
 31
0.0
  0
LINE
  5
24C
330
20
100
AcDbEntity
  8
2
  6
LTYPE1
 62
     1
100
AcDbLine
 10
150.85
 20
165.4
 30
0.0
 11
150.85
 21
157.9
 31
0.0
  0
LINE
  5
24D
330
20
100
AcDbEntity
  8
2
  6
LTYPE1
 62
     1
100
AcDbLine
 10
151.0
 20
188.8
 30
0.0
 11
151.0
 21
177.8
 31
0.0
  0
LINE
  5
24E
330
20
100
AcDbEntity
  8
2
  6
LTYPE1
 62
     1
100
AcDbLine
 10
156.5
 20
183.3
 30
0.0
 11
145.5
 21
183.3
 31
0.0
  0
LINE
  5
24F
330
20
100
AcDbEntity
  8
2
  6
LTYPE1
 62
     1
100
AcDbLine
 10
205.9
 20
161.65
 30
0.0
 11
198.35
 21
161.65
 31
0.0
  0
LINE
  5
250
330
20
100
AcDbEntity
  8
2
  6
LTYPE1
 62
     1
100
AcDbLine
 10
184.55
 20
71.65
 30
0.0
 11
184.55
 21
79.65
 31
0.0
  0
LINE
  5
251
330
20
100
AcDbEntity
  8
2
  6
LTYPE1
 62
     1
100
AcDbLine
 10
168.15
 20
71.65
 30
0.0
 11
168.15
 21
79.65
 31
0.0
  0
LINE
  5
252
330
20
100
AcDbEntity
  8
2
  6
LTYPE1
 62
     1
100
AcDbLine
 10
176.35
 20
71.65
 30
0.0
 11
176.35
 21
111.75
 31
0.0
  0
LINE
  5
253
330
20
100
AcDbEntity
  8
2
  6
LTYPE1
 62
     1
100
AcDbLine
 10
394.65
 20
216.1
 30
0.0
 11
394.65
 21
187.2
 31
0.0
  0
LINE
  5
254
330
20
100
AcDbEntity
  8
2
  6
LTYPE1
 62
     1
100
AcDbLine
 10
382.25
 20
201.65
 30
0.0
 11
407.05
 21
201.65
 31
0.0
  0
LINE
  5
255
330
20
100
AcDbEntity
  8
2
  6
LTYPE1
 62
     1
100
AcDbLine
 10
408.8999999999999
 20
161.65
 30
0.0
 11
422.9
 21
161.65
 31
0.0
  0
LINE
  5
256
330
20
100
AcDbEntity
  8
2
  6
LTYPE1
 62
     1
100
AcDbLine
 10
385.65
 20
91.15
 30
0.0
 11
385.65
 21
105.5
 31
0.0
  0
LINE
  5
257
330
20
100
AcDbEntity
  8
2
  6
LTYPE1
 62
     1
100
AcDbLine
 10
385.65
 20
71.65
 30
0.0
 11
385.65
 21
111.75
 31
0.0
  0
LINE
  5
258
330
20
100
AcDbEntity
  8
2
  6
LTYPE1
 62
     1
100
AcDbLine
 10
377.45
 20
71.65
 30
0.0
 11
377.45
 21
79.65
 31
0.0
  0
LINE
  5
259
330
20
100
AcDbEntity
  8
2
  6
LTYPE1
 62
     1
100
AcDbLine
 10
393.85
 20
71.65
 30
0.0
 11
393.85
 21
79.65
 31
0.0
  0
LINE
  5
25A
330
20
100
AcDbEntity
  8
2
  6
LTYPE1
 62
     1
100
AcDbLine
 10
239.35
 20
382.5
 30
0.0
 11
239.35
 21
396.5
 31
0.0
  0
LINE
  5
25B
330
20
100
AcDbEntity
  8
2
  6
LTYPE1
 62
     1
100
AcDbLine
 10
113.35
 20
382.5
 30
0.0
 11
113.35
 21
396.5
 31
0.0
  0
LINE
  5
25C
330
20
100
AcDbEntity
  8
2
  6
LTYPE1
 62
     1
100
AcDbLine
 10
118.85
 20
368.25
 30
0.0
 11
144.25
 21
368.25
 31
0.0
  0
LINE
  5
25D
330
20
100
AcDbEntity
  8
2
  6
LTYPE1
 62
     1
100
AcDbLine
 10
233.85
 20
368.25
 30
0.0
 11
208.45
 21
368.25
 31
0.0
  0
LINE
  5
25E
330
20
100
AcDbEntity
  8
2
  6
LTYPE1
 62
     1
100
AcDbLine
 10
161.9
 20
359.25
 30
0.0
 11
190.8
 21
359.25
 31
0.0
  0
LINE
  5
25F
330
20
100
AcDbEntity
  8
2
  6
LTYPE1
 62
     1
100
AcDbLine
 10
176.35
 20
346.85
 30
0.0
 11
176.35
 21
371.65
 31
0.0
  0
LINE
  5
260
330
20
100
AcDbEntity
  8
0
  6
LTYPE1
 62
     1
100
AcDbLine
 10
402.8999999999999
 20
54.2
 30
0.0
 11
368.4
 21
54.2
 31
0.0
  0
LINE
  5
261
330
20
100
AcDbEntity
  8
0
  6
LTYPE1
 62
     1
100
AcDbLine
 10
385.65
 20
69.84999999999999
 30
0.0
 11
385.65
 21
38.55
 31
0.0
  0
LINE
  5
262
330
20
100
AcDbEntity
  8
0
  6
LTYPE1
 62
     1
100
AcDbLine
 10
214.45
 20
54.1
 30
0.0
 11
176.35
 21
54.1
 31
0.0
  0
LINE
  5
263
330
20
100
AcDbEntity
  8
0
  6
LTYPE1
 62
     1
100
AcDbLine
 10
138.25
 20
54.1
 30
0.0
 11
176.35
 21
54.1
 31
0.0
  0
LINE
  5
264
330
20
100
AcDbEntity
  8
0
  6
LTYPE1
 62
     1
100
AcDbLine
 10
176.35
 20
61.15
 30
0.0
 11
176.35
 21
46.2
 31
0.0
  0
LINE
  5
265
330
20
100
AcDbEntity
  8
5
  6
Continuous
 62
     4
100
AcDbLine
 10
138.25
 20
36.75
 30
0.0
 11
138.25
 21
16.35
 31
0.0
  0
LINE
  5
266
330
20
100
AcDbEntity
  8
5
  6
Continuous
 62
     4
100
AcDbLine
 10
138.25
 20
17.35
 30
0.0
 11
140.664814566
 21
16.702952387
 31
0.0
  0
LINE
  5
267
330
20
100
AcDbEntity
  8
5
  6
Continuous
 62
     4
100
AcDbLine
 10
138.25
 20
17.35
 30
0.0
 11
140.664814566
 21
17.997047613
 31
0.0
  0
LINE
  5
268
330
20
100
AcDbEntity
  8
5
  6
Continuous
 62
     4
100
AcDbLine
 10
138.25
 20
17.35
 30
0.0
 11
214.45
 21
17.35
 31
0.0
  0
LINE
  5
269
330
20
100
AcDbEntity
  8
5
  6
Continuous
 62
     4
100
AcDbLine
 10
214.45
 20
17.35
 30
0.0
 11
212.035185434
 21
17.997047613
 31
0.0
  0
LINE
  5
26A
330
20
100
AcDbEntity
  8
5
  6
Continuous
 62
     4
100
AcDbLine
 10
214.45
 20
17.35
 30
0.0
 11
212.035185434
 21
16.702952387
 31
0.0
  0
LINE
  5
26B
330
20
100
AcDbEntity
  8
5
  6
Continuous
 62
     4
100
AcDbLine
 10
214.45
 20
36.75
 30
0.0
 11
214.45
 21
16.35
 31
0.0
  0
TEXT
  5
26C
330
20
100
AcDbEntity
  8
5
  6
Continuous
 62
     4
100
AcDbText
 10
167.9
 20
18.35
 30
0.3
 40
4.0
  1
７６．２
  7
KANJI2
100
AcDbText
  0
LINE
  5
26D
330
20
100
AcDbEntity
  8
5
  6
Continuous
 62
     4
100
AcDbLine
 10
397.216296302
 20
71.65
 30
0.3
 11
447.05
 21
71.65
 31
0.3
  0
LINE
  5
26E
330
20
100
AcDbEntity
  8
5
  6
Continuous
 62
     4
100
AcDbLine
 10
446.05
 20
71.65
 30
0.0
 11
445.402952387
 21
69.235185434
 31
0.0
  0
LINE
  5
26F
330
20
100
AcDbEntity
  8
5
  6
Continuous
 62
     4
100
AcDbLine
 10
446.05
 20
71.65
 30
0.0
 11
446.697047613
 21
69.235185434
 31
0.0
  0
LINE
  5
270
330
20
100
AcDbEntity
  8
5
  6
Continuous
 62
     4
100
AcDbLine
 10
446.05
 20
71.65
 30
0.0
 11
446.05
 21
36.75
 31
0.0
  0
LINE
  5
271
330
20
100
AcDbEntity
  8
5
  6
Continuous
 62
     4
100
AcDbLine
 10
446.05
 20
36.75
 30
0.0
 11
446.697047613
 21
39.164814566
 31
0.0
  0
LINE
  5
272
330
20
100
AcDbEntity
  8
5
  6
Continuous
 62
     4
100
AcDbLine
 10
446.05
 20
36.75
 30
0.0
 11
445.402952387
 21
39.164814566
 31
0.0
  0
LINE
  5
273
330
20
100
AcDbEntity
  8
5
  6
Continuous
 62
     4
100
AcDbLine
 10
396.724762197
 20
36.75
 30
0.0
 11
447.05
 21
36.75
 31
0.0
  0
TEXT
  5
274
330
20
100
AcDbEntity
  8
5
  6
Continuous
 62
     4
100
AcDbText
 10
445.0499999999999
 20
45.75
 30
0.3
 40
4.0
  1
３４．９
 50
90.0
  7
KANJI2
100
AcDbText
  0
LINE
  5
275
330
20
100
AcDbEntity
  8
2
  6
Continuous
 62
     4
100
AcDbLine
 10
395.15
 20
87.65
 30
0.3
 11
395.15
 21
107.115116279
 31
0.3
  0
LINE
  5
276
330
20
100
AcDbEntity
  8
2
  6
Continuous
 62
     4
100
AcDbLine
 10
396.15
 20
106.580232558
 30
0.0
 11
396.15
 21
94.65000000000001
 31
0.0
  0
LINE
  5
277
330
20
100
AcDbEntity
  8
2
  6
Continuous
 62
     4
100
AcDbLine
 10
376.15
 20
87.65
 30
0.0
 11
376.15
 21
107.115116279
 31
0.0
  0
LINE
  5
278
330
20
100
AcDbEntity
  8
2
  6
Continuous
 62
     4
100
AcDbLine
 10
375.15
 20
106.580232558
 30
0.0
 11
375.15
 21
94.65000000000001
 31
0.0
  0
LINE
  5
279
330
20
100
AcDbEntity
  8
2
  6
Continuous
 62
     4
100
AcDbLine
 10
165.85
 20
106.580232558
 30
0.0
 11
165.85
 21
88.65
 31
0.0
  0
LINE
  5
27A
330
20
100
AcDbEntity
  8
2
  6
Continuous
 62
     4
100
AcDbLine
 10
166.85
 20
87.65
 30
0.0
 11
166.85
 21
107.115116279
 31
0.0
  0
LINE
  5
27B
330
20
100
AcDbEntity
  8
2
  6
Continuous
 62
     4
100
AcDbLine
 10
186.85
 20
106.580232558
 30
0.0
 11
186.85
 21
88.65
 31
0.0
  0
LINE
  5
27C
330
20
100
AcDbEntity
  8
2
  6
Continuous
 62
     4
100
AcDbLine
 10
185.85
 20
87.65
 30
0.0
 11
185.85
 21
107.115116279
 31
0.0
  0
LINE
  5
27D
330
20
100
AcDbEntity
  8
2
  6
LTYPE2
 62
     4
100
AcDbLine
 10
242.85
 20
386.25
 30
0.0
 11
242.85
 21
393.25
 31
0.0
  0
LINE
  5
27E
330
20
100
AcDbEntity
  8
2
  6
LTYPE2
 62
     4
100
AcDbLine
 10
235.85
 20
386.25
 30
0.0
 11
235.85
 21
393.25
 31
0.0
  0
LINE
  5
27F
330
20
100
AcDbEntity
  8
2
  6
LTYPE2
 62
     4
100
AcDbLine
 10
116.85
 20
386.25
 30
0.0
 11
116.85
 21
393.25
 31
0.0
  0
LINE
  5
280
330
20
100
AcDbEntity
  8
2
  6
LTYPE2
 62
     4
100
AcDbLine
 10
109.85
 20
386.25
 30
0.0
 11
109.85
 21
393.25
 31
0.0
  0
LWPOLYLINE
  5
281
330
20
100
AcDbEntity
  8
2
  6
LTYPE2
 62
     4
100
AcDbPolyline
 90
        3
 70
     0
 43
0.0
 10
118.85
 20
378.72
 10
120.15
 20
377.57
 10
120.15
 20
368.25
  0
LINE
  5
286
330
20
100
AcDbEntity
  8
2
  6
LTYPE2
 62
     4
100
AcDbLine
 10
118.85
 20
368.25
 30
0.0
 11
118.85
 21
378.72
 31
0.0
  0
LINE
  5
287
330
20
100
AcDbEntity
  8
2
  6
LTYPE2
 62
     4
100
AcDbLine
 10
140.85
 20
368.25
 30
0.0
 11
140.85
 21
378.72
 31
0.0
  0
LINE
  5
288
330
20
100
AcDbEntity
  8
2
  6
LTYPE2
 62
     4
100
AcDbLine
 10
118.85
 20
378.72
 30
0.0
 11
140.85
 21
378.72
 31
0.0
  0
LINE
  5
289
330
20
100
AcDbEntity
  8
2
  6
LTYPE2
 62
     4
100
AcDbLine
 10
138.85
 20
378.72
 30
0.0
 11
138.85
 21
368.25
 31
0.0
  0
LINE
  5
28A
330
20
100
AcDbEntity
  8
2
  6
LTYPE2
 62
     4
100
AcDbLine
 10
138.85
 20
377.57
 30
0.0
 11
120.15
 21
377.57
 31
0.0
  0
LINE
  5
28B
330
20
100
AcDbEntity
  8
2
  6
LTYPE2
 62
     4
100
AcDbLine
 10
118.85
 20
357.78
 30
0.0
 11
120.15
 21
358.93
 31
0.0
  0
LINE
  5
28C
330
20
100
AcDbEntity
  8
2
  6
LTYPE2
 62
     4
100
AcDbLine
 10
120.15
 20
358.93
 30
0.0
 11
120.15
 21
368.25
 31
0.0
  0
LINE
  5
28D
330
20
100
AcDbEntity
  8
2
  6
LTYPE2
 62
     4
100
AcDbLine
 10
118.85
 20
368.25
 30
0.0
 11
118.85
 21
357.78
 31
0.0
  0
LINE
  5
28E
330
20
100
AcDbEntity
  8
2
  6
LTYPE2
 62
     4
100
AcDbLine
 10
140.85
 20
368.25
 30
0.0
 11
140.85
 21
357.78
 31
0.0
  0
LINE
  5
28F
330
20
100
AcDbEntity
  8
2
  6
LTYPE2
 62
     4
100
AcDbLine
 10
118.85
 20
357.78
 30
0.0
 11
140.85
 21
357.78
 31
0.0
  0
LINE
  5
290
330
20
100
AcDbEntity
  8
2
  6
LTYPE2
 62
     4
100
AcDbLine
 10
138.85
 20
357.78
 30
0.0
 11
138.85
 21
368.25
 31
0.0
  0
LINE
  5
291
330
20
100
AcDbEntity
  8
2
  6
LTYPE2
 62
     4
100
AcDbLine
 10
138.85
 20
358.93
 30
0.0
 11
120.15
 21
358.93
 31
0.0
  0
LWPOLYLINE
  5
292
330
20
100
AcDbEntity
  8
2
  6
LTYPE2
 62
     4
100
AcDbPolyline
 90
        3
 70
     0
 43
0.0
 10
233.85
 20
378.72
 10
232.55
 20
377.57
 10
232.55
 20
368.25
  0
LINE
  5
297
330
20
100
AcDbEntity
  8
2
  6
LTYPE2
 62
     4
100
AcDbLine
 10
233.85
 20
368.25
 30
0.0
 11
233.85
 21
378.72
 31
0.0
  0
LINE
  5
298
330
20
100
AcDbEntity
  8
2
  6
LTYPE2
 62
     4
100
AcDbLine
 10
211.85
 20
368.25
 30
0.0
 11
211.85
 21
378.72
 31
0.0
  0
LINE
  5
299
330
20
100
AcDbEntity
  8
2
  6
LTYPE2
 62
     4
100
AcDbLine
 10
233.85
 20
378.72
 30
0.0
 11
211.85
 21
378.72
 31
0.0
  0
LINE
  5
29A
330
20
100
AcDbEntity
  8
2
  6
LTYPE2
 62
     4
100
AcDbLine
 10
213.85
 20
378.72
 30
0.0
 11
213.85
 21
368.25
 31
0.0
  0
LINE
  5
29B
330
20
100
AcDbEntity
  8
2
  6
LTYPE2
 62
     4
100
AcDbLine
 10
213.85
 20
377.57
 30
0.0
 11
232.55
 21
377.57
 31
0.0
  0
LINE
  5
29C
330
20
100
AcDbEntity
  8
2
  6
LTYPE2
 62
     4
100
AcDbLine
 10
233.85
 20
357.78
 30
0.0
 11
232.55
 21
358.93
 31
0.0
  0
LINE
  5
29D
330
20
100
AcDbEntity
  8
2
  6
LTYPE2
 62
     4
100
AcDbLine
 10
232.55
 20
358.93
 30
0.0
 11
232.55
 21
368.25
 31
0.0
  0
LINE
  5
29E
330
20
100
AcDbEntity
  8
2
  6
LTYPE2
 62
     4
100
AcDbLine
 10
233.85
 20
368.25
 30
0.0
 11
233.85
 21
357.78
 31
0.0
  0
LINE
  5
29F
330
20
100
AcDbEntity
  8
2
  6
LTYPE2
 62
     4
100
AcDbLine
 10
211.85
 20
368.25
 30
0.0
 11
211.85
 21
357.78
 31
0.0
  0
LINE
  5
2A0
330
20
100
AcDbEntity
  8
2
  6
LTYPE2
 62
     4
100
AcDbLine
 10
233.85
 20
357.78
 30
0.0
 11
211.85
 21
357.78
 31
0.0
  0
LINE
  5
2A1
330
20
100
AcDbEntity
  8
2
  6
LTYPE2
 62
     4
100
AcDbLine
 10
213.85
 20
357.78
 30
0.0
 11
213.85
 21
368.25
 31
0.0
  0
LINE
  5
2A2
330
20
100
AcDbEntity
  8
2
  6
LTYPE2
 62
     4
100
AcDbLine
 10
213.85
 20
358.93
 30
0.0
 11
232.55
 21
358.93
 31
0.0
  0
CIRCLE
  5
2A3
330
20
100
AcDbEntity
  8
2
  6
LTYPE2
 62
     4
100
AcDbCircle
 10
176.35
 20
359.25
 30
0.0
 40
9.5
  0
CIRCLE
  5
2A4
330
20
100
AcDbEntity
  8
2
  6
LTYPE2
 62
     4
100
AcDbCircle
 10
176.35
 20
359.25
 30
0.0
 40
10.5
  0
CIRCLE
  5
2A5
330
20
100
AcDbEntity
  8
2
  6
LTYPE2
 62
     4
100
AcDbCircle
 10
176.35
 20
359.25
 30
0.0
 40
18.0
  0
LWPOLYLINE
  5
2A6
330
20
100
AcDbEntity
  8
2
  6
LTYPE2
 62
     4
100
AcDbPolyline
 90
        3
 70
     0
 43
0.0
 10
233.85
 20
212.12
 10
232.55
 20
210.97
 10
232.55
 20
201.65
  0
LINE
  5
2AB
330
20
100
AcDbEntity
  8
2
  6
LTYPE2
 62
     4
100
AcDbLine
 10
233.85
 20
191.18
 30
0.0
 11
232.55
 21
192.33
 31
0.0
  0
LINE
  5
2AC
330
20
100
AcDbEntity
  8
2
  6
LTYPE2
 62
     4
100
AcDbLine
 10
232.55
 20
192.33
 30
0.0
 11
232.55
 21
201.65
 31
0.0
  0
LINE
  5
2AD
330
20
100
AcDbEntity
  8
2
  6
LTYPE2
 62
     4
100
AcDbLine
 10
219.2
 20
192.33
 30
0.0
 11
232.55
 21
192.33
 31
0.0
  0
LINE
  5
2AE
330
20
100
AcDbEntity
  8
2
  6
LTYPE2
 62
     4
100
AcDbLine
 10
233.85
 20
191.18
 30
0.0
 11
223.0
 21
191.18
 31
0.0
  0
LINE
  5
2AF
330
20
100
AcDbEntity
  8
2
  6
LTYPE2
 62
     4
100
AcDbLine
 10
233.85
 20
212.12
 30
0.0
 11
198.65
 21
212.12
 31
0.0
  0
LINE
  5
2B0
330
20
100
AcDbEntity
  8
2
  6
LTYPE2
 62
     4
100
AcDbLine
 10
200.692095226
 20
210.97
 30
0.0
 11
232.55
 21
210.97
 31
0.0
  0
LWPOLYLINE
  5
2B1
330
20
100
AcDbEntity
  8
2
  6
LTYPE2
 62
     4
100
AcDbPolyline
 90
        3
 70
     0
 43
0.0
 10
118.85
 20
212.12
 10
120.15
 20
210.97
 10
120.15
 20
201.65
  0
LINE
  5
2B6
330
20
100
AcDbEntity
  8
2
  6
LTYPE2
 62
     4
100
AcDbLine
 10
118.85
 20
212.12
 30
0.0
 11
154.05
 21
212.12
 31
0.0
  0
LINE
  5
2B7
330
20
100
AcDbEntity
  8
2
  6
LTYPE2
 62
     4
100
AcDbLine
 10
152.007904774
 20
210.97
 30
0.0
 11
120.15
 21
210.97
 31
0.0
  0
LWPOLYLINE
  5
2B8
330
20
100
AcDbEntity
  8
2
  6
LTYPE2
 62
     4
100
AcDbPolyline
 90
        3
 70
     0
 43
0.0
 10
118.85
 20
191.18
 10
120.15
 20
192.33
 10
120.15
 20
201.65
  0
LINE
  5
2BD
330
20
100
AcDbEntity
  8
2
  6
LTYPE2
 62
     4
100
AcDbLine
 10
133.5
 20
192.33
 30
0.0
 11
120.15
 21
192.33
 31
0.0
  0
LINE
  5
2BE
330
20
100
AcDbEntity
  8
2
  6
LTYPE2
 62
     4
100
AcDbLine
 10
118.85
 20
191.18
 30
0.0
 11
129.7
 21
191.18
 31
0.0
  0
LINE
  5
2BF
330
20
100
AcDbEntity
  8
2
  6
LTYPE2
 62
     4
100
AcDbLine
 10
147.35
 20
190.65
 30
0.0
 11
147.35
 21
132.65
 31
0.0
  0
LINE
  5
2C0
330
20
100
AcDbEntity
  8
2
  6
LTYPE2
 62
     4
100
AcDbLine
 10
147.35
 20
190.65
 30
0.0
 11
205.35
 21
190.65
 31
0.0
  0
LINE
  5
2C1
330
20
100
AcDbEntity
  8
2
  6
LTYPE2
 62
     4
100
AcDbLine
 10
205.35
 20
190.65
 30
0.0
 11
205.35
 21
132.65
 31
0.0
  0
LINE
  5
2C2
330
20
100
AcDbEntity
  8
2
  6
LTYPE2
 62
     4
100
AcDbLine
 10
147.35
 20
132.65
 30
0.0
 11
205.35
 21
132.65
 31
0.0
  0
CIRCLE
  5
2C3
330
20
100
AcDbEntity
  8
2
  6
LTYPE2
 62
     4
100
AcDbCircle
 10
201.85
 20
161.65
 30
0.0
 40
2.25
  0
CIRCLE
  5
2C4
330
20
100
AcDbEntity
  8
2
  6
LTYPE2
 62
     4
100
AcDbCircle
 10
201.7
 20
140.0
 30
0.0
 40
3.5
  0
LINE
  5
2C5
330
20
100
AcDbEntity
  8
2
  6
LTYPE2
 62
     4
100
AcDbLine
 10
199.6
 20
140.4
 30
0.0
 11
199.6
 21
139.6
 31
0.0
  0
LINE
  5
2C6
330
20
100
AcDbEntity
  8
2
  6
LTYPE2
 62
     4
100
AcDbLine
 10
201.3
 20
137.9
 30
0.0
 11
202.1
 21
137.9
 31
0.0
  0
LINE
  5
2C7
330
20
100
AcDbEntity
  8
2
  6
LTYPE2
 62
     4
100
AcDbLine
 10
203.8
 20
139.6
 30
0.0
 11
203.8
 21
140.4
 31
0.0
  0
LINE
  5
2C8
330
20
100
AcDbEntity
  8
2
  6
LTYPE2
 62
     4
100
AcDbLine
 10
201.3
 20
142.1
 30
0.0
 11
202.1
 21
142.1
 31
0.0
  0
LINE
  5
2C9
330
20
100
AcDbEntity
  8
2
  6
LTYPE2
 62
     4
100
AcDbLine
 10
202.1
 20
137.9
 30
0.0
 11
202.1
 21
138.7
 31
0.0
  0
LINE
  5
2CA
330
20
100
AcDbEntity
  8
2
  6
LTYPE2
 62
     4
100
AcDbLine
 10
201.3
 20
137.9
 30
0.0
 11
201.3
 21
138.7
 31
0.0
  0
LINE
  5
2CB
330
20
100
AcDbEntity
  8
2
  6
LTYPE2
 62
     4
100
AcDbLine
 10
203.8
 20
139.6
 30
0.0
 11
203.0
 21
139.6
 31
0.0
  0
LINE
  5
2CC
330
20
100
AcDbEntity
  8
2
  6
LTYPE2
 62
     4
100
AcDbLine
 10
202.1
 20
142.1
 30
0.0
 11
202.1
 21
141.3
 31
0.0
  0
LINE
  5
2CD
330
20
100
AcDbEntity
  8
2
  6
LTYPE2
 62
     4
100
AcDbLine
 10
199.6
 20
140.4
 30
0.0
 11
200.4
 21
140.4
 31
0.0
  0
LINE
  5
2CE
330
20
100
AcDbEntity
  8
2
  6
LTYPE2
 62
     4
100
AcDbLine
 10
203.8
 20
140.4
 30
0.0
 11
203.0
 21
140.4
 31
0.0
  0
LINE
  5
2CF
330
20
100
AcDbEntity
  8
2
  6
LTYPE2
 62
     4
100
AcDbLine
 10
201.3
 20
142.1
 30
0.0
 11
201.3
 21
141.3
 31
0.0
  0
LINE
  5
2D0
330
20
100
AcDbEntity
  8
2
  6
LTYPE2
 62
     4
100
AcDbLine
 10
199.6
 20
139.6
 30
0.0
 11
200.4
 21
139.6
 31
0.0
  0
ARC
  5
2D1
330
20
100
AcDbEntity
  8
2
  6
LTYPE2
 62
     4
100
AcDbCircle
 10
202.9
 20
138.8
 30
0.0
 40
0.8
100
AcDbArc
 50
82.3
 51
187.7
  0
ARC
  5
2D2
330
20
100
AcDbEntity
  8
2
  6
LTYPE2
 62
     4
100
AcDbCircle
 10
202.9
 20
141.2
 30
0.0
 40
0.8
100
AcDbArc
 50
172.3
 51
277.7
  0
ARC
  5
2D3
330
20
100
AcDbEntity
  8
2
  6
LTYPE2
 62
     4
100
AcDbCircle
 10
200.5
 20
141.2
 30
0.0
 40
0.8
100
AcDbArc
 50
262.3
 51
7.699999999999999
  0
ARC
  5
2D4
330
20
100
AcDbEntity
  8
2
  6
LTYPE2
 62
     4
100
AcDbCircle
 10
200.5
 20
138.8
 30
0.0
 40
0.8
100
AcDbArc
 50
352.3
 51
97.70000000000001
  0
CIRCLE
  5
2D5
330
20
100
AcDbEntity
  8
2
  6
LTYPE2
 62
     4
100
AcDbCircle
 10
150.85
 20
161.65
 30
0.0
 40
2.25
  0
CIRCLE
  5
2D6
330
20
100
AcDbEntity
  8
2
  6
LTYPE2
 62
     4
100
AcDbCircle
 10
151.0
 20
183.3
 30
0.0
 40
3.5
  0
LINE
  5
2D7
330
20
100
AcDbEntity
  8
2
  6
LTYPE2
 62
     4
100
AcDbLine
 10
153.1
 20
182.9
 30
0.0
 11
153.1
 21
183.7
 31
0.0
  0
LINE
  5
2D8
330
20
100
AcDbEntity
  8
2
  6
LTYPE2
 62
     4
100
AcDbLine
 10
151.4
 20
185.4
 30
0.0
 11
150.6
 21
185.4
 31
0.0
  0
LINE
  5
2D9
330
20
100
AcDbEntity
  8
2
  6
LTYPE2
 62
     4
100
AcDbLine
 10
148.9
 20
183.7
 30
0.0
 11
148.9
 21
182.9
 31
0.0
  0
LINE
  5
2DA
330
20
100
AcDbEntity
  8
2
  6
LTYPE2
 62
     4
100
AcDbLine
 10
151.4
 20
181.2
 30
0.0
 11
150.6
 21
181.2
 31
0.0
  0
LINE
  5
2DB
330
20
100
AcDbEntity
  8
2
  6
LTYPE2
 62
     4
100
AcDbLine
 10
150.6
 20
185.4
 30
0.0
 11
150.6
 21
184.6
 31
0.0
  0
LINE
  5
2DC
330
20
100
AcDbEntity
  8
2
  6
LTYPE2
 62
     4
100
AcDbLine
 10
151.4
 20
185.4
 30
0.0
 11
151.4
 21
184.6
 31
0.0
  0
LINE
  5
2DD
330
20
100
AcDbEntity
  8
2
  6
LTYPE2
 62
     4
100
AcDbLine
 10
148.9
 20
183.7
 30
0.0
 11
149.7
 21
183.7
 31
0.0
  0
LINE
  5
2DE
330
20
100
AcDbEntity
  8
2
  6
LTYPE2
 62
     4
100
AcDbLine
 10
150.6
 20
181.2
 30
0.0
 11
150.6
 21
182.0
 31
0.0
  0
LINE
  5
2DF
330
20
100
AcDbEntity
  8
2
  6
LTYPE2
 62
     4
100
AcDbLine
 10
153.1
 20
182.9
 30
0.0
 11
152.3
 21
182.9
 31
0.0
  0
LINE
  5
2E0
330
20
100
AcDbEntity
  8
2
  6
LTYPE2
 62
     4
100
AcDbLine
 10
148.9
 20
182.9
 30
0.0
 11
149.7
 21
182.9
 31
0.0
  0
LINE
  5
2E1
330
20
100
AcDbEntity
  8
2
  6
LTYPE2
 62
     4
100
AcDbLine
 10
151.4
 20
181.2
 30
0.0
 11
151.4
 21
182.0
 31
0.0
  0
LINE
  5
2E2
330
20
100
AcDbEntity
  8
2
  6
LTYPE2
 62
     4
100
AcDbLine
 10
153.1
 20
183.7
 30
0.0
 11
152.3
 21
183.7
 31
0.0
  0
ARC
  5
2E3
330
20
100
AcDbEntity
  8
2
  6
LTYPE2
 62
     4
100
AcDbCircle
 10
149.8
 20
184.5
 30
0.0
 40
0.8
100
AcDbArc
 50
262.3
 51
7.699999999999999
  0
ARC
  5
2E4
330
20
100
AcDbEntity
  8
2
  6
LTYPE2
 62
     4
100
AcDbCircle
 10
149.8
 20
182.1
 30
0.0
 40
0.8
100
AcDbArc
 50
352.3
 51
97.70000000000001
  0
ARC
  5
2E5
330
20
100
AcDbEntity
  8
2
  6
LTYPE2
 62
     4
100
AcDbCircle
 10
152.2
 20
182.1
 30
0.0
 40
0.8
100
AcDbArc
 50
82.3
 51
187.7
  0
ARC
  5
2E6
330
20
100
AcDbEntity
  8
2
  6
LTYPE2
 62
     4
100
AcDbCircle
 10
152.2
 20
184.5
 30
0.0
 40
0.8
100
AcDbArc
 50
172.3
 51
277.7
  0
LINE
  5
2E7
330
20
100
AcDbEntity
  8
2
  6
LTYPE2
 62
     4
100
AcDbLine
 10
144.6
 20
188.4
 30
0.0
 11
208.1
 21
188.4
 31
0.0
  0
LINE
  5
2E8
330
20
100
AcDbEntity
  8
2
  6
LTYPE2
 62
     4
100
AcDbLine
 10
208.1
 20
188.4
 30
0.0
 11
208.1
 21
134.9
 31
0.0
  0
LINE
  5
2E9
330
20
100
AcDbEntity
  8
2
  6
LTYPE2
 62
     4
100
AcDbLine
 10
144.6
 20
188.4
 30
0.0
 11
144.6
 21
134.9
 31
0.0
  0
LINE
  5
2EA
330
20
100
AcDbEntity
  8
2
  6
LTYPE2
 62
     4
100
AcDbLine
 10
144.6
 20
134.9
 30
0.0
 11
208.1
 21
134.9
 31
0.0
  0
LINE
  5
2EB
330
20
100
AcDbEntity
  8
2
  6
LTYPE2
 62
     4
100
AcDbLine
 10
176.35
 20
142.4
 30
0.0
 11
186.35
 21
142.4
 31
0.0
  0
LINE
  5
2EC
330
20
100
AcDbEntity
  8
2
  6
LTYPE2
 62
     4
100
AcDbLine
 10
186.35
 20
142.4
 30
0.0
 11
186.35
 21
152.4
 31
0.0
  0
LINE
  5
2ED
330
20
100
AcDbEntity
  8
2
  6
LTYPE2
 62
     4
100
AcDbLine
 10
186.35
 20
152.4
 30
0.0
 11
176.35
 21
152.4
 31
0.0
  0
LINE
  5
2EE
330
20
100
AcDbEntity
  8
2
  6
LTYPE2
 62
     4
100
AcDbLine
 10
176.35
 20
142.4
 30
0.0
 11
166.35
 21
142.4
 31
0.0
  0
LINE
  5
2EF
330
20
100
AcDbEntity
  8
2
  6
LTYPE2
 62
     4
100
AcDbLine
 10
166.35
 20
142.4
 30
0.0
 11
166.35
 21
152.4
 31
0.0
  0
LINE
  5
2F0
330
20
100
AcDbEntity
  8
2
  6
LTYPE2
 62
     4
100
AcDbLine
 10
166.35
 20
152.4
 30
0.0
 11
176.35
 21
152.4
 31
0.0
  0
CIRCLE
  5
2F1
330
20
100
AcDbEntity
  8
2
  6
LTYPE2
 62
     4
100
AcDbCircle
 10
168.825
 20
147.4
 30
0.0
 40
1.597654530999999
  0
LINE
  5
2F2
330
20
100
AcDbEntity
  8
2
  6
LTYPE2
 62
     4
100
AcDbLine
 10
167.927514983
 20
148.721749085
 30
0.0
 11
170.146749085
 21
146.502514983
 31
0.0
  0
LINE
  5
2F3
330
20
100
AcDbEntity
  8
2
  6
LTYPE2
 62
     4
100
AcDbLine
 10
167.503250915
 20
148.297485017
 30
0.0
 11
169.722485017
 21
146.078250915
 31
0.0
  0
CIRCLE
  5
2F4
330
20
100
AcDbEntity
  8
2
  6
LTYPE2
 62
     4
100
AcDbCircle
 10
173.825
 20
147.4
 30
0.0
 40
1.597654530999999
  0
LINE
  5
2F5
330
20
100
AcDbEntity
  8
2
  6
LTYPE2
 62
     4
100
AcDbLine
 10
172.927514983
 20
148.721749085
 30
0.0
 11
175.146749085
 21
146.502514983
 31
0.0
  0
LINE
  5
2F6
330
20
100
AcDbEntity
  8
2
  6
LTYPE2
 62
     4
100
AcDbLine
 10
172.503250915
 20
148.297485017
 30
0.0
 11
174.722485017
 21
146.078250915
 31
0.0
  0
CIRCLE
  5
2F7
330
20
100
AcDbEntity
  8
2
  6
LTYPE2
 62
     4
100
AcDbCircle
 10
183.875
 20
147.4
 30
0.0
 40
1.597654530999999
  0
LINE
  5
2F8
330
20
100
AcDbEntity
  8
2
  6
LTYPE2
 62
     4
100
AcDbLine
 10
184.772485017
 20
148.721749085
 30
0.0
 11
182.553250915
 21
146.502514983
 31
0.0
  0
LINE
  5
2F9
330
20
100
AcDbEntity
  8
2
  6
LTYPE2
 62
     4
100
AcDbLine
 10
185.196749085
 20
148.297485017
 30
0.0
 11
182.977514983
 21
146.078250915
 31
0.0
  0
CIRCLE
  5
2FA
330
20
100
AcDbEntity
  8
2
  6
LTYPE2
 62
     4
100
AcDbCircle
 10
178.875
 20
147.4
 30
0.0
 40
1.597654530999999
  0
LINE
  5
2FB
330
20
100
AcDbEntity
  8
2
  6
LTYPE2
 62
     4
100
AcDbLine
 10
179.772485017
 20
148.721749085
 30
0.0
 11
177.553250915
 21
146.502514983
 31
0.0
  0
LINE
  5
2FC
330
20
100
AcDbEntity
  8
2
  6
LTYPE2
 62
     4
100
AcDbLine
 10
180.196749085
 20
148.297485017
 30
0.0
 11
177.977514983
 21
146.078250915
 31
0.0
  0
LINE
  5
2FD
330
20
100
AcDbEntity
  8
2
  6
LTYPE2
 62
     4
100
AcDbLine
 10
166.35
 20
150.321749085
 30
0.0
 11
186.35
 21
150.321749085
 31
0.0
  0
LINE
  5
2FE
330
20
100
AcDbEntity
  8
2
  6
LTYPE2
 62
     4
100
AcDbLine
 10
166.35
 20
144.521749085
 30
0.0
 11
186.35
 21
144.521749085
 31
0.0
  0
LINE
  5
2FF
330
20
100
AcDbEntity
  8
2
  6
LTYPE2
 62
     4
100
AcDbLine
 10
412.65
 20
158.15
 30
0.0
 11
419.6499999999999
 21
158.15
 31
0.0
  0
LINE
  5
300
330
20
100
AcDbEntity
  8
2
  6
LTYPE2
 62
     4
100
AcDbLine
 10
412.65
 20
165.15
 30
0.0
 11
419.6499999999999
 21
165.15
 31
0.0
  0
LINE
  5
301
330
20
100
AcDbEntity
  8
2
  6
LTYPE2
 62
     4
100
AcDbLine
 10
379.65
 20
134.9
 30
0.0
 11
353.15
 21
134.9
 31
0.0
  0
LINE
  5
302
330
20
100
AcDbEntity
  8
2
  6
LTYPE2
 62
     4
100
AcDbLine
 10
353.15
 20
188.4
 30
0.0
 11
379.65
 21
188.4
 31
0.0
  0
LINE
  5
303
330
20
100
AcDbEntity
  8
2
  6
LTYPE2
 62
     4
100
AcDbLine
 10
353.15
 20
134.9
 30
0.0
 11
353.15
 21
188.4
 31
0.0
  0
LINE
  5
304
330
20
100
AcDbEntity
  8
2
  6
LTYPE2
 62
     4
100
AcDbLine
 10
379.65
 20
188.4
 30
0.0
 11
379.65
 21
134.9
 31
0.0
  0
LINE
  5
305
330
20
100
AcDbEntity
  8
2
  6
LTYPE2
 62
     4
100
AcDbLine
 10
353.15
 20
142.4
 30
0.0
 11
341.15
 21
142.4
 31
0.0
  0
LINE
  5
306
330
20
100
AcDbEntity
  8
2
  6
LTYPE2
 62
     4
100
AcDbLine
 10
341.15
 20
142.4
 30
0.0
 11
341.15
 21
152.4
 31
0.0
  0
LINE
  5
307
330
20
100
AcDbEntity
  8
2
  6
LTYPE2
 62
     4
100
AcDbLine
 10
345.65
 20
142.4
 30
0.0
 11
345.65
 21
152.4
 31
0.0
  0
LINE
  5
308
330
20
100
AcDbEntity
  8
2
  6
LTYPE2
 62
     4
100
AcDbLine
 10
353.15
 20
152.4
 30
0.0
 11
341.15
 21
152.4
 31
0.0
  0
LINE
  5
309
330
20
100
AcDbEntity
  8
2
  6
LTYPE2
 62
     4
100
AcDbLine
 10
353.15
 20
142.925
 30
0.0
 11
347.65
 21
142.925
 31
0.0
  0
LINE
  5
30A
330
20
100
AcDbEntity
  8
2
  6
LTYPE2
 62
     4
100
AcDbLine
 10
347.65
 20
142.925
 30
0.0
 11
347.65
 21
144.875
 31
0.0
  0
LINE
  5
30B
330
20
100
AcDbEntity
  8
2
  6
LTYPE2
 62
     4
100
AcDbLine
 10
350.95
 20
142.925
 30
0.0
 11
350.95
 21
144.875
 31
0.0
  0
LINE
  5
30C
330
20
100
AcDbEntity
  8
2
  6
LTYPE2
 62
     4
100
AcDbLine
 10
353.15
 20
146.825
 30
0.0
 11
347.65
 21
146.825
 31
0.0
  0
LINE
  5
30D
330
20
100
AcDbEntity
  8
2
  6
LTYPE2
 62
     4
100
AcDbLine
 10
347.65
 20
146.825
 30
0.0
 11
347.65
 21
144.875
 31
0.0
  0
LINE
  5
30E
330
20
100
AcDbEntity
  8
2
  6
LTYPE2
 62
     4
100
AcDbLine
 10
350.95
 20
146.825
 30
0.0
 11
350.95
 21
144.875
 31
0.0
  0
LINE
  5
30F
330
20
100
AcDbEntity
  8
2
  6
LTYPE2
 62
     4
100
AcDbLine
 10
353.15
 20
147.925
 30
0.0
 11
347.65
 21
147.925
 31
0.0
  0
LINE
  5
310
330
20
100
AcDbEntity
  8
2
  6
LTYPE2
 62
     4
100
AcDbLine
 10
347.65
 20
147.925
 30
0.0
 11
347.65
 21
149.875
 31
0.0
  0
LINE
  5
311
330
20
100
AcDbEntity
  8
2
  6
LTYPE2
 62
     4
100
AcDbLine
 10
350.95
 20
147.925
 30
0.0
 11
350.95
 21
149.875
 31
0.0
  0
LINE
  5
312
330
20
100
AcDbEntity
  8
2
  6
LTYPE2
 62
     4
100
AcDbLine
 10
353.15
 20
151.825
 30
0.0
 11
347.65
 21
151.825
 31
0.0
  0
LINE
  5
313
330
20
100
AcDbEntity
  8
2
  6
LTYPE2
 62
     4
100
AcDbLine
 10
347.65
 20
151.825
 30
0.0
 11
347.65
 21
149.875
 31
0.0
  0
LINE
  5
314
330
20
100
AcDbEntity
  8
2
  6
LTYPE2
 62
     4
100
AcDbLine
 10
350.95
 20
151.825
 30
0.0
 11
350.95
 21
149.875
 31
0.0
  0
LINE
  5
315
330
20
100
AcDbEntity
  8
0
  6
LTYPE2
 62
     4
100
AcDbLine
 10
194.45
 20
62.794968766
 30
0.0
 11
194.45
 21
54.1
 31
0.0
  0
LINE
  5
316
330
20
100
AcDbEntity
  8
0
  6
LTYPE2
 62
     4
100
AcDbLine
 10
197.45
 20
64.03872345100001
 30
0.0
 11
197.45
 21
54.1
 31
0.0
  0
LINE
  5
317
330
20
100
AcDbEntity
  8
0
  6
LTYPE2
 62
     4
100
AcDbLine
 10
214.45
 20
64.56999999999999
 30
0.0
 11
213.15
 21
63.42
 31
0.0
  0
LINE
  5
318
330
20
100
AcDbEntity
  8
0
  6
LTYPE2
 62
     4
100
AcDbLine
 10
213.15
 20
63.42
 30
0.0
 11
213.15
 21
54.1
 31
0.0
  0
LINE
  5
319
330
20
100
AcDbEntity
  8
0
  6
LTYPE2
 62
     4
100
AcDbLine
 10
213.15
 20
63.37937296999999
 30
0.0
 11
194.45
 21
62.794968766
 31
0.0
  0
LINE
  5
31A
330
20
100
AcDbEntity
  8
0
  6
LTYPE2
 62
     4
100
AcDbLine
 10
214.45
 20
64.56999999999999
 30
0.0
 11
197.38
 21
64.03653584199999
 31
0.0
  0
LINE
  5
31B
330
20
100
AcDbEntity
  8
0
  6
LTYPE2
 62
     4
100
AcDbLine
 10
197.45
 20
64.03872345100001
 30
0.0
 11
194.45
 21
62.794968766
 31
0.0
  0
LINE
  5
31C
330
20
100
AcDbEntity
  8
0
  6
LTYPE2
 62
     4
100
AcDbLine
 10
214.45
 20
54.1
 30
0.0
 11
214.45
 21
64.56999999999999
 31
0.0
  0
LINE
  5
31D
330
20
100
AcDbEntity
  8
0
  6
LTYPE2
 62
     4
100
AcDbLine
 10
194.45
 20
45.40503123399999
 30
0.0
 11
194.45
 21
54.1
 31
0.0
  0
LINE
  5
31E
330
20
100
AcDbEntity
  8
0
  6
LTYPE2
 62
     4
100
AcDbLine
 10
197.45
 20
44.16127654899999
 30
0.0
 11
197.45
 21
54.1
 31
0.0
  0
LINE
  5
31F
330
20
100
AcDbEntity
  8
0
  6
LTYPE2
 62
     4
100
AcDbLine
 10
214.45
 20
43.63
 30
0.0
 11
213.15
 21
44.78
 31
0.0
  0
LINE
  5
320
330
20
100
AcDbEntity
  8
0
  6
LTYPE2
 62
     4
100
AcDbLine
 10
213.15
 20
44.78
 30
0.0
 11
213.15
 21
54.1
 31
0.0
  0
LINE
  5
321
330
20
100
AcDbEntity
  8
0
  6
LTYPE2
 62
     4
100
AcDbLine
 10
213.15
 20
44.82062702999999
 30
0.0
 11
194.45
 21
45.40503123399999
 31
0.0
  0
LINE
  5
322
330
20
100
AcDbEntity
  8
0
  6
LTYPE2
 62
     4
100
AcDbLine
 10
214.45
 20
43.63
 30
0.0
 11
197.38
 21
44.163464158
 31
0.0
  0
LINE
  5
323
330
20
100
AcDbEntity
  8
0
  6
LTYPE2
 62
     4
100
AcDbLine
 10
197.45
 20
44.16127654899999
 30
0.0
 11
194.45
 21
45.40503123399999
 31
0.0
  0
LINE
  5
324
330
20
100
AcDbEntity
  8
0
  6
LTYPE2
 62
     4
100
AcDbLine
 10
214.45
 20
54.1
 30
0.0
 11
214.45
 21
43.63
 31
0.0
  0
LINE
  5
325
330
20
100
AcDbEntity
  8
0
  6
LTYPE2
 62
     4
100
AcDbLine
 10
158.25
 20
62.794968766
 30
0.0
 11
158.25
 21
54.1
 31
0.0
  0
LINE
  5
326
330
20
100
AcDbEntity
  8
0
  6
LTYPE2
 62
     4
100
AcDbLine
 10
155.25
 20
64.03872345100001
 30
0.0
 11
155.25
 21
54.1
 31
0.0
  0
LINE
  5
327
330
20
100
AcDbEntity
  8
0
  6
LTYPE2
 62
     4
100
AcDbLine
 10
138.25
 20
64.56999999999999
 30
0.0
 11
139.55
 21
63.42
 31
0.0
  0
LINE
  5
328
330
20
100
AcDbEntity
  8
0
  6
LTYPE2
 62
     4
100
AcDbLine
 10
139.55
 20
63.42
 30
0.0
 11
139.55
 21
54.1
 31
0.0
  0
LINE
  5
329
330
20
100
AcDbEntity
  8
0
  6
LTYPE2
 62
     4
100
AcDbLine
 10
139.55
 20
63.37937296999999
 30
0.0
 11
158.25
 21
62.794968766
 31
0.0
  0
LINE
  5
32A
330
20
100
AcDbEntity
  8
0
  6
LTYPE2
 62
     4
100
AcDbLine
 10
138.25
 20
64.56999999999999
 30
0.0
 11
155.32
 21
64.03653584199999
 31
0.0
  0
LINE
  5
32B
330
20
100
AcDbEntity
  8
0
  6
LTYPE2
 62
     4
100
AcDbLine
 10
155.25
 20
64.03872345100001
 30
0.0
 11
158.25
 21
62.794968766
 31
0.0
  0
LINE
  5
32C
330
20
100
AcDbEntity
  8
0
  6
LTYPE2
 62
     4
100
AcDbLine
 10
138.25
 20
54.1
 30
0.0
 11
138.25
 21
64.56999999999999
 31
0.0
  0
LINE
  5
32D
330
20
100
AcDbEntity
  8
0
  6
LTYPE2
 62
     4
100
AcDbLine
 10
158.25
 20
45.40503123399999
 30
0.0
 11
158.25
 21
54.1
 31
0.0
  0
LINE
  5
32E
330
20
100
AcDbEntity
  8
0
  6
LTYPE2
 62
     4
100
AcDbLine
 10
155.25
 20
44.16127654899999
 30
0.0
 11
155.25
 21
54.1
 31
0.0
  0
LINE
  5
32F
330
20
100
AcDbEntity
  8
0
  6
LTYPE2
 62
     4
100
AcDbLine
 10
138.25
 20
43.63
 30
0.0
 11
139.55
 21
44.78
 31
0.0
  0
LINE
  5
330
330
20
100
AcDbEntity
  8
0
  6
LTYPE2
 62
     4
100
AcDbLine
 10
139.55
 20
44.78
 30
0.0
 11
139.55
 21
54.1
 31
0.0
  0
LINE
  5
331
330
20
100
AcDbEntity
  8
0
  6
LTYPE2
 62
     4
100
AcDbLine
 10
139.55
 20
44.82062702999999
 30
0.0
 11
158.25
 21
45.40503123399999
 31
0.0
  0
LINE
  5
332
330
20
100
AcDbEntity
  8
0
  6
LTYPE2
 62
     4
100
AcDbLine
 10
138.25
 20
43.63
 30
0.0
 11
155.32
 21
44.163464158
 31
0.0
  0
LINE
  5
333
330
20
100
AcDbEntity
  8
0
  6
LTYPE2
 62
     4
100
AcDbLine
 10
155.25
 20
44.16127654899999
 30
0.0
 11
158.25
 21
45.40503123399999
 31
0.0
  0
LINE
  5
334
330
20
100
AcDbEntity
  8
0
  6
LTYPE2
 62
     4
100
AcDbLine
 10
138.25
 20
54.1
 30
0.0
 11
138.25
 21
43.63
 31
0.0
  0
LINE
  5
335
330
20
100
AcDbEntity
  8
2
  6
LTYPE2
 62
     4
100
AcDbLine
 10
176.35
 20
109.65
 30
0.0
 11
184.85
 21
109.65
 31
0.0
  0
LINE
  5
336
330
20
100
AcDbEntity
  8
2
  6
LTYPE2
 62
     4
100
AcDbLine
 10
184.85
 20
109.65
 30
0.0
 11
184.85
 21
107.65
 31
0.0
  0
LINE
  5
337
330
20
100
AcDbEntity
  8
2
  6
LTYPE2
 62
     4
100
AcDbLine
 10
184.85
 20
107.65
 30
0.0
 11
176.35
 21
107.65
 31
0.0
  0
LINE
  5
338
330
20
100
AcDbEntity
  8
2
  6
LTYPE2
 62
     4
100
AcDbLine
 10
184.85
 20
107.65
 30
0.0
 11
186.85
 21
106.580232558
 31
0.0
  0
LINE
  5
339
330
20
100
AcDbEntity
  8
2
  6
LTYPE2
 62
     4
100
AcDbLine
 10
176.35
 20
109.65
 30
0.0
 11
167.85
 21
109.65
 31
0.0
  0
LINE
  5
33A
330
20
100
AcDbEntity
  8
2
  6
LTYPE2
 62
     4
100
AcDbLine
 10
167.85
 20
109.65
 30
0.0
 11
167.85
 21
107.65
 31
0.0
  0
LINE
  5
33B
330
20
100
AcDbEntity
  8
2
  6
LTYPE2
 62
     4
100
AcDbLine
 10
167.85
 20
107.65
 30
0.0
 11
176.35
 21
107.65
 31
0.0
  0
LINE
  5
33C
330
20
100
AcDbEntity
  8
2
  6
LTYPE2
 62
     4
100
AcDbLine
 10
167.85
 20
107.65
 30
0.0
 11
165.85
 21
106.580232558
 31
0.0
  0
LINE
  5
33D
330
20
100
AcDbEntity
  8
2
  6
LTYPE2
 62
     4
100
AcDbLine
 10
385.65
 20
109.65
 30
0.0
 11
377.15
 21
109.65
 31
0.0
  0
LINE
  5
33E
330
20
100
AcDbEntity
  8
2
  6
LTYPE2
 62
     4
100
AcDbLine
 10
377.15
 20
109.65
 30
0.0
 11
377.15
 21
107.65
 31
0.0
  0
LINE
  5
33F
330
20
100
AcDbEntity
  8
2
  6
LTYPE2
 62
     4
100
AcDbLine
 10
377.15
 20
107.65
 30
0.0
 11
385.65
 21
107.65
 31
0.0
  0
LINE
  5
340
330
20
100
AcDbEntity
  8
2
  6
LTYPE2
 62
     4
100
AcDbLine
 10
377.15
 20
107.65
 30
0.0
 11
375.15
 21
106.580232558
 31
0.0
  0
LINE
  5
341
330
20
100
AcDbEntity
  8
2
  6
LTYPE2
 62
     4
100
AcDbLine
 10
385.65
 20
109.65
 30
0.0
 11
394.15
 21
109.65
 31
0.0
  0
LINE
  5
342
330
20
100
AcDbEntity
  8
2
  6
LTYPE2
 62
     4
100
AcDbLine
 10
394.15
 20
109.65
 30
0.0
 11
394.15
 21
107.65
 31
0.0
  0
LINE
  5
343
330
20
100
AcDbEntity
  8
2
  6
LTYPE2
 62
     4
100
AcDbLine
 10
394.15
 20
107.65
 30
0.0
 11
385.65
 21
107.65
 31
0.0
  0
LINE
  5
344
330
20
100
AcDbEntity
  8
2
  6
LTYPE2
 62
     4
100
AcDbLine
 10
394.15
 20
107.65
 30
0.0
 11
396.15
 21
106.580232558
 31
0.0
  0
LINE
  5
345
330
20
100
AcDbEntity
  8
5
  6
Continuous
 62
     4
100
AcDbLine
 10
217.774762197
 20
64.15
 30
0.0
 11
219.801187276
 21
65.61410429899999
 31
0.0
  0
LINE
  5
346
330
20
100
AcDbEntity
  8
5
  6
Continuous
 62
     4
100
AcDbLine
 10
217.774762197
 20
64.15
 30
0.0
 11
218.797645645
 21
66.431164056
 31
0.0
  0
LINE
  5
347
330
20
100
AcDbEntity
  8
5
  6
Continuous
 62
     4
100
AcDbLine
 10
217.774762197
 20
64.15
 30
0.0
 11
239.024762197
 21
90.25
 31
0.0
  0
LINE
  5
348
330
20
100
AcDbEntity
  8
5
  6
Continuous
 62
     4
100
AcDbLine
 10
239.024762197
 20
90.25
 30
0.0
 11
272.024762197
 21
90.25
 31
0.0
  0
TEXT
  5
349
330
20
100
AcDbEntity
  8
5
  6
Continuous
 62
     4
100
AcDbText
 10
239.024762197
 20
91.25
 30
0.6
 40
5.0
  1
ＮＰＴ１／２
  7
KANJI3
100
AcDbText
  0
LINE
  5
34A
330
20
100
AcDbEntity
  8
5
  6
Continuous
 62
     4
100
AcDbLine
 10
134.6051
 20
64.0
 30
0.6
 11
133.933514738
 21
66.40810573600001
 31
0.6
  0
LINE
  5
34B
330
20
100
AcDbEntity
  8
5
  6
Continuous
 62
     4
100
AcDbLine
 10
134.6051
 20
64.0
 30
0.0
 11
132.819437234
 21
65.749688112
 31
0.0
  0
LINE
  5
34C
330
20
100
AcDbEntity
  8
5
  6
Continuous
 62
     4
100
AcDbLine
 10
134.6051
 20
64.0
 30
0.0
 11
119.5051
 21
89.55
 31
0.0
  0
LINE
  5
34D
330
20
100
AcDbEntity
  8
5
  6
Continuous
 62
     4
100
AcDbLine
 10
119.5051
 20
89.55
 30
0.0
 11
86.5051
 21
89.55
 31
0.0
  0
TEXT
  5
34E
330
20
100
AcDbEntity
  8
5
  6
Continuous
 62
     4
100
AcDbText
 10
86.5051
 20
90.54999999999999
 30
0.6
 40
5.0
  1
ＮＰＴ１／２
  7
KANJI3
100
AcDbText
  0
ENDSEC
  0
SECTION
  2
OBJECTS
  0
DICTIONARY
  5
C
330
0
100
AcDbDictionary
281
     1
  3
ACAD_COLOR
350
1B
  3
ACAD_GROUP
350
D
  3
ACAD_LAYOUT
350
19
  3
ACAD_MATERIAL
350
1A
  3
ACAD_MLINESTYLE
350
16
  3
ACAD_PLOTSETTINGS
350
18
  3
ACAD_PLOTSTYLENAME
350
E
  3
ACDBHEADERROUNDTRIPXREC
350
355
  3
AcDbVariableDictionary
350
351
  0
DICTIONARY
  5
1B
102
{ACAD_REACTORS
330
C
102
}
330
C
100
AcDbDictionary
281
     1
  0
DICTIONARY
  5
D
102
{ACAD_REACTORS
330
C
102
}
330
C
100
AcDbDictionary
281
     1
  0
DICTIONARY
  5
19
102
{ACAD_REACTORS
330
C
102
}
330
C
100
AcDbDictionary
281
     1
  3
Model
350
23
  3
レイアウト1
350
1F
  0
DICTIONARY
  5
1A
102
{ACAD_REACTORS
330
C
102
}
330
C
100
AcDbDictionary
281
     1
  0
DICTIONARY
  5
16
102
{ACAD_REACTORS
330
C
102
}
330
C
100
AcDbDictionary
281
     1
  3
Standard
350
17
  0
DICTIONARY
  5
18
102
{ACAD_REACTORS
330
C
102
}
330
C
100
AcDbDictionary
281
     1
  0
ACDBDICTIONARYWDFLT
  5
E
102
{ACAD_REACTORS
330
C
102
}
330
C
100
AcDbDictionary
281
     1
  3
Normal
350
F
100
AcDbDictionaryWithDefault
340
F
  0
DICTIONARY
  5
355
102
{ACAD_REACTORS
330
C
102
}
330
C
100
AcDbDictionary
281
     1
  3
COLORDICT
350
357
  3
MATERIALDICT
350
356
  0
DICTIONARY
  5
351
102
{ACAD_REACTORS
330
C
102
}
330
C
100
AcDbDictionary
281
     1
  3
DIMASSOC
350
352
  3
PROJECTNAME
350
353
  0
LAYOUT
  5
23
102
{ACAD_XDICTIONARY
360
35A
102
}
102
{ACAD_REACTORS
330
19
102
}
330
19
100
AcDbPlotSettings
  1

  2
hp psc 2500 series
  4

  6

 40
0.0
 41
0.0
 42
0.0
 43
0.0
 44
0.0
 45
0.0
 46
0.0
 47
0.0
 48
0.0
 49
0.0
140
0.0
141
0.0
142
1.0
143
1.0
 70
  1712
 72
     0
 73
     0
 74
     0
  7

 75
     0
147
1.0
148
0.0
149
0.0
100
AcDbLayout
  1
Model
 70
     1
 71
     0
 10
0.0
 20
0.0
 11
12.0
 21
9.0
 12
0.0
 22
0.0
 32
0.0
 14
0.0
 24
0.0
 34
0.0
 15
0.0
 25
0.0
 35
0.0
146
0.0
 13
0.0
 23
0.0
 33
0.0
 16
1.0
 26
0.0
 36
0.0
 17
0.0
 27
1.0
 37
0.0
 76
     0
330
20
  0
LAYOUT
  5
1F
102
{ACAD_XDICTIONARY
360
358
102
}
102
{ACAD_REACTORS
330
19
102
}
330
19
100
AcDbPlotSettings
  1

  2
hp psc 2500 series
  4

  6

 40
0.0
 41
0.0
 42
0.0
 43
0.0
 44
0.0
 45
0.0
 46
0.0
 47
0.0
 48
0.0
 49
0.0
140
0.0
141
0.0
142
1.0
143
1.0
 70
   688
 72
     0
 73
     0
 74
     5
  7

 75
    16
147
1.0
148
0.0
149
0.0
100
AcDbLayout
  1
レイアウト1
 70
     1
 71
     1
 10
0.0
 20
0.0
 11
12.0
 21
9.0
 12
0.0
 22
0.0
 32
0.0
 14
1.000000000000000E+20
 24
1.000000000000000E+20
 34
1.000000000000000E+20
 15
-1.000000000000000E+20
 25
-1.000000000000000E+20
 35
-1.000000000000000E+20
146
0.0
 13
0.0
 23
0.0
 33
0.0
 16
1.0
 26
0.0
 36
0.0
 17
0.0
 27
1.0
 37
0.0
 76
     0
330
1C
  0
MLINESTYLE
  5
17
102
{ACAD_REACTORS
330
16
102
}
330
16
100
AcDbMlineStyle
  2
STANDARD
 70
     0
  3

 62
   256
 51
90.0
 52
90.0
 71
     2
 49
0.5
 62
   256
  6
BYLAYER
 49
-0.5
 62
   256
  6
BYLAYER
  0
ACDBPLACEHOLDER
  5
F
102
{ACAD_REACTORS
330
E
102
}
330
E
  0
XRECORD
  5
357
102
{ACAD_REACTORS
330
355
102
}
330
355
100
AcDbXrecord
280
     1
340
1B
  0
XRECORD
  5
356
102
{ACAD_REACTORS
330
355
102
}
330
355
100
AcDbXrecord
280
     1
340
1A
  0
DICTIONARYVAR
  5
352
102
{ACAD_REACTORS
330
351
102
}
330
351
100
DictionaryVariables
280
     0
  1
1
  0
DICTIONARYVAR
  5
353
102
{ACAD_REACTORS
330
351
102
}
330
351
100
DictionaryVariables
280
     0
  1

  0
DICTIONARY
  5
35A
330
23
100
AcDbDictionary
280
     1
281
     1
  3
ACAD_XREC_ROUNDTRIP
360
35B
  0
DICTIONARY
  5
358
330
1F
100
AcDbDictionary
280
     1
281
     1
  3
ACAD_XREC_ROUNDTRIP
360
359
  0
XRECORD
  5
35B
102
{ACAD_REACTORS
330
35A
102
}
330
35A
100
AcDbXrecord
280
     1
102
SHADEPLOT
 70
     0
102
SHADEPLOTRESLEVEL
 70
     2
102
SHADEPLOTCUSTOMDPI
 70
   300
  0
XRECORD
  5
359
102
{ACAD_REACTORS
330
358
102
}
330
358
100
AcDbXrecord
280
     1
102
SHADEPLOT
 70
     0
102
SHADEPLOTRESLEVEL
 70
     2
102
SHADEPLOTCUSTOMDPI
 70
   300
  0
ENDSEC
  0
EOF
