  0
SECTION
  2
HEADER
  9
$ACADVER
  1
AC1015
  9
$ACADMAINTVER
 70
    20
  9
$DWGCODEPAGE
  3
ANSI_932
  9
$INSBASE
 10
0.0
 20
0.0
 30
0.0
  9
$EXTMIN
 10
81.53299999999999
 20
54.6
 30
0.0
  9
$EXTMAX
 10
727.623
 20
522.5933333333334
 30
0.0
  9
$LIMMIN
 10
0.0
 20
0.0
  9
$LIMMAX
 10
841.0
 20
594.0
  9
$ORTHOMODE
 70
     0
  9
$REGENMODE
 70
     1
  9
$FILLMODE
 70
     1
  9
$QTEXTMODE
 70
     0
  9
$MIRRTEXT
 70
     1
  9
$LTSCALE
 40
1.0
  9
$ATTMODE
 70
     1
  9
$TEXTSIZE
 40
2.5
  9
$TRACEWID
 40
1.0
  9
$TEXTSTYLE
  7
Standard
  9
$CLAYER
  8
0
  9
$CELTYPE
  6
ByLayer
  9
$CECOLOR
 62
   256
  9
$CELTSCALE
 40
1.0
  9
$DISPSILH
 70
     0
  9
$DIMSCALE
 40
1.0
  9
$DIMASZ
 40
2.5
  9
$DIMEXO
 40
0.625
  9
$DIMDLI
 40
3.75
  9
$DIMRND
 40
0.0
  9
$DIMDLE
 40
0.0
  9
$DIMEXE
 40
1.25
  9
$DIMTP
 40
0.0
  9
$DIMTM
 40
0.0
  9
$DIMTXT
 40
2.5
  9
$DIMCEN
 40
2.5
  9
$DIMTSZ
 40
0.0
  9
$DIMTOL
 70
     0
  9
$DIMLIM
 70
     0
  9
$DIMTIH
 70
     0
  9
$DIMTOH
 70
     0
  9
$DIMSE1
 70
     0
  9
$DIMSE2
 70
     0
  9
$DIMTAD
 70
     1
  9
$DIMZIN
 70
     8
  9
$DIMBLK
  1

  9
$DIMASO
 70
     1
  9
$DIMSHO
 70
     1
  9
$DIMPOST
  1

  9
$DIMAPOST
  1

  9
$DIMALT
 70
     0
  9
$DIMALTD
 70
     3
  9
$DIMALTF
 40
0.03937007874016
  9
$DIMLFAC
 40
1.0
  9
$DIMTOFL
 70
     1
  9
$DIMTVP
 40
0.0
  9
$DIMTIX
 70
     0
  9
$DIMSOXD
 70
     0
  9
$DIMSAH
 70
     0
  9
$DIMBLK1
  1

  9
$DIMBLK2
  1

  9
$DIMSTYLE
  2
ISO-25
  9
$DIMCLRD
 70
     0
  9
$DIMCLRE
 70
     0
  9
$DIMCLRT
 70
     0
  9
$DIMTFAC
 40
1.0
  9
$DIMGAP
 40
0.625
  9
$DIMJUST
 70
     0
  9
$DIMSD1
 70
     0
  9
$DIMSD2
 70
     0
  9
$DIMTOLJ
 70
     0
  9
$DIMTZIN
 70
     8
  9
$DIMALTZ
 70
     0
  9
$DIMALTTZ
 70
     0
  9
$DIMUPT
 70
     0
  9
$DIMDEC
 70
     2
  9
$DIMTDEC
 70
     2
  9
$DIMALTU
 70
     2
  9
$DIMALTTD
 70
     3
  9
$DIMTXSTY
  7
Standard
  9
$DIMAUNIT
 70
     0
  9
$DIMADEC
 70
     0
  9
$DIMALTRND
 40
0.0
  9
$DIMAZIN
 70
     0
  9
$DIMDSEP
 70
    46
  9
$DIMATFIT
 70
     3
  9
$DIMFRAC
 70
     0
  9
$DIMLDRBLK
  1

  9
$DIMLUNIT
 70
     2
  9
$DIMLWD
 70
    -2
  9
$DIMLWE
 70
    -2
  9
$DIMTMOVE
 70
     0
  9
$LUNITS
 70
     2
  9
$LUPREC
 70
     4
  9
$SKETCHINC
 40
1.0
  9
$FILLETRAD
 40
10.0
  9
$AUNITS
 70
     0
  9
$AUPREC
 70
     0
  9
$MENU
  1
.
  9
$ELEVATION
 40
0.0
  9
$PELEVATION
 40
0.0
  9
$THICKNESS
 40
0.0
  9
$LIMCHECK
 70
     0
  9
$CHAMFERA
 40
10.0
  9
$CHAMFERB
 40
10.0
  9
$CHAMFERC
 40
20.0
  9
$CHAMFERD
 40
0.0
  9
$SKPOLY
 70
     0
  9
$TDCREATE
 40
2457476.588275359
  9
$TDUCREATE
 40
2457476.213275359
  9
$TDUPDATE
 40
2457476.588735093
  9
$TDUUPDATE
 40
2457476.213735092
  9
$TDINDWG
 40
0.0004611343
  9
$TDUSRTIMER
 40
0.0004609606
  9
$USRTIMER
 70
     1
  9
$ANGBASE
 50
0.0
  9
$ANGDIR
 70
     0
  9
$PDMODE
 70
     0
  9
$PDSIZE
 40
0.0
  9
$PLINEWID
 40
0.0
  9
$SPLFRAME
 70
     0
  9
$SPLINETYPE
 70
     6
  9
$SPLINESEGS
 70
     8
  9
$HANDSEED
  5
2E0
  9
$SURFTAB1
 70
     6
  9
$SURFTAB2
 70
     6
  9
$SURFTYPE
 70
     6
  9
$SURFU
 70
     6
  9
$SURFV
 70
     6
  9
$UCSBASE
  2

  9
$UCSNAME
  2

  9
$UCSORG
 10
0.0
 20
0.0
 30
0.0
  9
$UCSXDIR
 10
1.0
 20
0.0
 30
0.0
  9
$UCSYDIR
 10
0.0
 20
1.0
 30
0.0
  9
$UCSORTHOREF
  2

  9
$UCSORTHOVIEW
 70
     0
  9
$UCSORGTOP
 10
0.0
 20
0.0
 30
0.0
  9
$UCSORGBOTTOM
 10
0.0
 20
0.0
 30
0.0
  9
$UCSORGLEFT
 10
0.0
 20
0.0
 30
0.0
  9
$UCSORGRIGHT
 10
0.0
 20
0.0
 30
0.0
  9
$UCSORGFRONT
 10
0.0
 20
0.0
 30
0.0
  9
$UCSORGBACK
 10
0.0
 20
0.0
 30
0.0
  9
$PUCSBASE
  2

  9
$PUCSNAME
  2

  9
$PUCSORG
 10
0.0
 20
0.0
 30
0.0
  9
$PUCSXDIR
 10
1.0
 20
0.0
 30
0.0
  9
$PUCSYDIR
 10
0.0
 20
1.0
 30
0.0
  9
$PUCSORTHOREF
  2

  9
$PUCSORTHOVIEW
 70
     0
  9
$PUCSORGTOP
 10
0.0
 20
0.0
 30
0.0
  9
$PUCSORGBOTTOM
 10
0.0
 20
0.0
 30
0.0
  9
$PUCSORGLEFT
 10
0.0
 20
0.0
 30
0.0
  9
$PUCSORGRIGHT
 10
0.0
 20
0.0
 30
0.0
  9
$PUCSORGFRONT
 10
0.0
 20
0.0
 30
0.0
  9
$PUCSORGBACK
 10
0.0
 20
0.0
 30
0.0
  9
$USERI1
 70
     0
  9
$USERI2
 70
     0
  9
$USERI3
 70
     0
  9
$USERI4
 70
     0
  9
$USERI5
 70
     0
  9
$USERR1
 40
0.0
  9
$USERR2
 40
0.0
  9
$USERR3
 40
0.0
  9
$USERR4
 40
0.0
  9
$USERR5
 40
0.0
  9
$WORLDVIEW
 70
     1
  9
$SHADEDGE
 70
     3
  9
$SHADEDIF
 70
    70
  9
$TILEMODE
 70
     1
  9
$MAXACTVP
 70
    64
  9
$PINSBASE
 10
0.0
 20
0.0
 30
0.0
  9
$PLIMCHECK
 70
     0
  9
$PEXTMIN
 10
1.000000000000000E+20
 20
1.000000000000000E+20
 30
1.000000000000000E+20
  9
$PEXTMAX
 10
-1.000000000000000E+20
 20
-1.000000000000000E+20
 30
-1.000000000000000E+20
  9
$PLIMMIN
 10
0.0
 20
0.0
  9
$PLIMMAX
 10
0.0
 20
0.0
  9
$UNITMODE
 70
     0
  9
$VISRETAIN
 70
     0
  9
$PLINEGEN
 70
     0
  9
$PSLTSCALE
 70
     1
  9
$TREEDEPTH
 70
  3020
  9
$CMLSTYLE
  2
Standard
  9
$CMLJUST
 70
     0
  9
$CMLSCALE
 40
20.0
  9
$PROXYGRAPHICS
 70
     1
  9
$MEASUREMENT
 70
     1
  9
$CELWEIGHT
370
    -1
  9
$ENDCAPS
280
     0
  9
$JOINSTYLE
280
     0
  9
$LWDISPLAY
290
     0
  9
$INSUNITS
 70
     4
  9
$HYPERLINKBASE
  1

  9
$STYLESHEET
  1

  9
$XEDIT
290
     1
  9
$CEPSNTYPE
380
     0
  9
$PSTYLEMODE
290
     1
  9
$FINGERPRINTGUID
  2
{1A745C32-B40F-89EB-06E6-E18E5E5A4D2D}
  9
$VERSIONGUID
  2
{63780EC6-82B7-42C8-A2C4-F5AF6BB9A224}
  9
$EXTNAMES
290
     1
  9
$PSVPSCALE
 40
0.0
  9
$OLESTARTUP
290
     0
  0
ENDSEC
  0
SECTION
  2
CLASSES
  0
CLASS
  1
ACDBDICTIONARYWDFLT
  2
AcDbDictionaryWithDefault
  3
ObjectDBX Classes
 90
        0
280
     0
281
     0
  0
CLASS
  1
MATERIAL
  2
AcDbMaterial
  3
ObjectDBX Classes
 90
     1024
280
     0
281
     0
  0
CLASS
  1
VISUALSTYLE
  2
AcDbVisualStyle
  3
ObjectDBX Classes
 90
     4095
280
     0
281
     0
  0
CLASS
  1
TABLESTYLE
  2
AcDbTableStyle
  3
ObjectDBX Classes
 90
     4095
280
     0
281
     0
  0
CLASS
  1
DICTIONARYVAR
  2
AcDbDictionaryVar
  3
ObjectDBX Classes
 90
        0
280
     0
281
     0
  0
CLASS
  1
ACDBPLACEHOLDER
  2
AcDbPlaceHolder
  3
ObjectDBX Classes
 90
        0
280
     0
281
     0
  0
CLASS
  1
LAYOUT
  2
AcDbLayout
  3
ObjectDBX Classes
 90
        0
280
     0
281
     0
  0
ENDSEC
  0
SECTION
  2
TABLES
  0
TABLE
  2
VPORT
  5
8
330
0
100
AcDbSymbolTable
 70
     1
  0
VPORT
  5
29
330
8
100
AcDbSymbolTableRecord
100
AcDbViewportTableRecord
  2
*Active
 70
     0
 10
0.0
 20
0.0
 11
1.0
 21
1.0
 12
459.204803993512
 22
297.0
 13
0.0
 23
0.0
 14
10.0
 24
10.0
 15
0.0
 25
0.0
 16
0.0
 26
0.0
 36
1.0
 17
0.0
 27
0.0
 37
0.0
 40
594.0365941490557
 41
1.54614412136536
 42
50.0
 43
0.0
 44
0.0
 50
0.0
 51
0.0
 71
     0
 72
  1000
 73
     1
 74
     3
 75
     0
 76
     0
 77
     0
 78
     0
281
     0
 65
     0
110
0.0
120
0.0
130
0.0
111
1.0
121
0.0
131
0.0
112
0.0
122
1.0
132
0.0
 79
     0
146
0.0
  0
ENDTAB
  0
TABLE
  2
LTYPE
  5
5
330
0
100
AcDbSymbolTable
 70
     2
  0
LTYPE
  5
14
330
5
100
AcDbSymbolTableRecord
100
AcDbLinetypeTableRecord
  2
ByBlock
 70
     0
  3

 72
    65
 73
     0
 40
0.0
  0
LTYPE
  5
15
330
5
100
AcDbSymbolTableRecord
100
AcDbLinetypeTableRecord
  2
ByLayer
 70
     0
  3

 72
    65
 73
     0
 40
0.0
  0
LTYPE
  5
16
330
5
100
AcDbSymbolTableRecord
100
AcDbLinetypeTableRecord
  2
Continuous
 70
     0
  3
Solid line
 72
    65
 73
     0
 40
0.0
  0
LTYPE
  5
271
330
5
100
AcDbSymbolTableRecord
100
AcDbLinetypeTableRecord
  2
LTYPE1
 70
     0
  3
CENTER
 72
    65
 73
     4
 40
5.0
 49
3.5
 74
     0
 49
-0.5
 74
     0
 49
0.5
 74
     0
 49
-0.5
 74
     0
  0
ENDTAB
  0
TABLE
  2
LAYER
  5
2
102
{ACAD_XDICTIONARY
360
2C7
102
}
330
0
100
AcDbSymbolTable
 70
   128
  0
LAYER
  5
10
330
2
100
AcDbSymbolTableRecord
100
AcDbLayerTableRecord
  2
0
 70
     0
 62
     7
  6
Continuous
370
    -3
390
F
  0
ENDTAB
  0
TABLE
  2
STYLE
  5
3
330
0
100
AcDbSymbolTable
 70
     2
  0
STYLE
  5
11
330
3
100
AcDbSymbolTableRecord
100
AcDbTextStyleTableRecord
  2
Standard
 70
     0
 40
0.0
 41
1.0
 50
0.0
 71
     0
 42
2.5
  3
txt.shx
  4
extfont.shx
  0
STYLE
  5
26E
330
3
100
AcDbSymbolTableRecord
100
AcDbTextStyleTableRecord
  2
KANJI0
 70
     0
 40
10.0
 41
0.8
 50
0.0
 71
     0
 42
10.0
  3
txt.shx
  4
extfont.shx
  0
ENDTAB
  0
TABLE
  2
VIEW
  5
6
330
0
100
AcDbSymbolTable
 70
     0
  0
ENDTAB
  0
TABLE
  2
UCS
  5
7
330
0
100
AcDbSymbolTable
 70
     0
  0
ENDTAB
  0
TABLE
  2
APPID
  5
9
330
0
100
AcDbSymbolTable
 70
     1
  0
APPID
  5
12
330
9
100
AcDbSymbolTableRecord
100
AcDbRegAppTableRecord
  2
ACAD
 70
     0
  0
ENDTAB
  0
TABLE
  2
DIMSTYLE
  5
A
330
0
100
AcDbSymbolTable
 70
     1
100
AcDbDimStyleTable
 71
     0
  0
DIMSTYLE
105
27
330
A
100
AcDbSymbolTableRecord
100
AcDbDimStyleTableRecord
  2
ISO-25
 70
     0
 41
2.5
 42
0.625
 43
3.75
 44
1.25
 73
     0
 74
     0
 77
     1
 78
     8
140
2.5
141
2.5
143
0.039370079
147
0.625
171
     3
172
     1
271
     2
272
     2
274
     3
284
     8
340
11
  0
ENDTAB
  0
TABLE
  2
BLOCK_RECORD
  5
1
330
0
100
AcDbSymbolTable
 70
     1
  0
BLOCK_RECORD
  5
1F
330
1
100
AcDbSymbolTableRecord
100
AcDbBlockTableRecord
  2
*Model_Space
340
22
  0
BLOCK_RECORD
  5
1B
330
1
100
AcDbSymbolTableRecord
100
AcDbBlockTableRecord
  2
*Paper_Space
340
1E
  0
BLOCK_RECORD
  5
23
330
1
100
AcDbSymbolTableRecord
100
AcDbBlockTableRecord
  2
*Paper_Space0
340
26
  0
ENDTAB
  0
ENDSEC
  0
SECTION
  2
BLOCKS
  0
BLOCK
  5
20
330
1F
100
AcDbEntity
  8
0
100
AcDbBlockBegin
  2
*Model_Space
 70
     0
 10
0.0
 20
0.0
 30
0.0
  3
*Model_Space
  1

  0
ENDBLK
  5
21
330
1F
100
AcDbEntity
  8
0
100
AcDbBlockEnd
  0
BLOCK
  5
1C
330
1B
100
AcDbEntity
 67
     1
  8
0
100
AcDbBlockBegin
  2
*Paper_Space
 70
     0
 10
0.0
 20
0.0
 30
0.0
  3
*Paper_Space
  1

  0
ENDBLK
  5
1D
330
1B
100
AcDbEntity
 67
     1
  8
0
100
AcDbBlockEnd
  0
BLOCK
  5
24
330
23
100
AcDbEntity
 67
     1
  8
0
100
AcDbBlockBegin
  2
*Paper_Space0
 70
     0
 10
0.0
 20
0.0
 30
0.0
  3
*Paper_Space0
  1

  0
ENDBLK
  5
25
330
23
100
AcDbEntity
 67
     1
  8
0
100
AcDbBlockEnd
  0
ENDSEC
  0
SECTION
  2
ENTITIES
  0
LINE
  5
A9
330
1F
100
AcDbEntity
  8
0
  6
Continuous
 62
     7
100
AcDbLine
 10
204.653
 20
238.6
 30
0.0
 11
204.653
 21
248.6
 31
0.0
  0
LINE
  5
AA
330
1F
100
AcDbEntity
  8
0
  6
Continuous
 62
     7
100
AcDbLine
 10
199.903
 20
248.6
 30
0.0
 11
199.903
 21
244.6
 31
0.0
  0
LINE
  5
AB
330
1F
100
AcDbEntity
  8
0
  6
Continuous
 62
     7
100
AcDbLine
 10
200.903
 20
89.1
 30
0.0
 11
200.903
 21
238.1
 31
0.0
  0
LINE
  5
AC
330
1F
100
AcDbEntity
  8
0
  6
Continuous
 62
     7
100
AcDbLine
 10
193.503
 20
82.59999999999999
 30
0.0
 11
198.553
 21
244.6
 31
0.0
  0
LINE
  5
AD
330
1F
100
AcDbEntity
  8
0
  6
Continuous
 62
     7
100
AcDbLine
 10
201.403
 20
238.6
 30
0.0
 11
204.653
 21
238.6
 31
0.0
  0
ARC
  5
AE
330
1F
100
AcDbEntity
  8
0
  6
Continuous
 62
     7
100
AcDbCircle
 10
201.403
 20
238.1
 30
0.0
 40
0.5
100
AcDbArc
 50
90.0
 51
180.0
  0
LINE
  5
AF
330
1F
100
AcDbEntity
  8
0
  6
Continuous
 62
     7
100
AcDbLine
 10
204.653
 20
78.59999999999999
 30
0.0
 11
204.653
 21
88.59999999999999
 31
0.0
  0
LINE
  5
B0
330
1F
100
AcDbEntity
  8
0
  6
Continuous
 62
     7
100
AcDbLine
 10
199.903
 20
78.59999999999999
 30
0.0
 11
199.903
 21
82.59999999999999
 31
0.0
  0
LINE
  5
B1
330
1F
100
AcDbEntity
  8
0
  6
Continuous
 62
     7
100
AcDbLine
 10
204.653
 20
88.59999999999999
 30
0.0
 11
201.403
 21
88.59999999999999
 31
0.0
  0
ARC
  5
B2
330
1F
100
AcDbEntity
  8
0
  6
Continuous
 62
     7
100
AcDbCircle
 10
201.403
 20
89.1
 30
0.0
 40
0.5
100
AcDbArc
 50
180.0
 51
270.0
  0
LINE
  5
B3
330
1F
100
AcDbEntity
  8
0
  6
Continuous
 62
     7
100
AcDbLine
 10
171.903
 20
244.6
 30
0.0
 11
171.903
 21
248.6
 31
0.0
  0
LINE
  5
B4
330
1F
100
AcDbEntity
  8
0
  6
Continuous
 62
     7
100
AcDbLine
 10
167.153
 20
248.6
 30
0.0
 11
167.153
 21
238.6
 31
0.0
  0
LINE
  5
B5
330
1F
100
AcDbEntity
  8
0
  6
Continuous
 62
     7
100
AcDbLine
 10
167.153
 20
238.6
 30
0.0
 11
170.403
 21
238.6
 31
0.0
  0
ARC
  5
B6
330
1F
100
AcDbEntity
  8
0
  6
Continuous
 62
     7
100
AcDbCircle
 10
170.403
 20
238.1
 30
0.0
 40
0.5
100
AcDbArc
 50
0.0
 51
90.0
  0
LINE
  5
B7
330
1F
100
AcDbEntity
  8
0
  6
Continuous
 62
     7
100
AcDbLine
 10
173.253
 20
244.6
 30
0.0
 11
178.303
 21
82.59999999999999
 31
0.0
  0
LINE
  5
B8
330
1F
100
AcDbEntity
  8
0
  6
Continuous
 62
     7
100
AcDbLine
 10
171.903
 20
82.59999999999999
 30
0.0
 11
171.903
 21
78.59999999999999
 31
0.0
  0
LINE
  5
B9
330
1F
100
AcDbEntity
  8
0
  6
Continuous
 62
     7
100
AcDbLine
 10
170.403
 20
88.59999999999999
 30
0.0
 11
167.153
 21
88.59999999999999
 31
0.0
  0
ARC
  5
BA
330
1F
100
AcDbEntity
  8
0
  6
Continuous
 62
     7
100
AcDbCircle
 10
170.403
 20
89.1
 30
0.0
 40
0.5
100
AcDbArc
 50
270.0
 51
0.0
  0
LINE
  5
BB
330
1F
100
AcDbEntity
  8
0
  6
Continuous
 62
     7
100
AcDbLine
 10
170.903
 20
238.1
 30
0.0
 11
170.903
 21
89.1
 31
0.0
  0
LINE
  5
BC
330
1F
100
AcDbEntity
  8
0
  6
Continuous
 62
     7
100
AcDbLine
 10
167.153
 20
88.59999999999999
 30
0.0
 11
167.153
 21
78.59999999999999
 31
0.0
  0
LINE
  5
BD
330
1F
100
AcDbEntity
  8
0
  6
Continuous
 62
     7
100
AcDbLine
 10
199.903
 20
244.6
 30
0.0
 11
171.903
 21
244.6
 31
0.0
  0
LINE
  5
BE
330
1F
100
AcDbEntity
  8
0
  6
Continuous
 62
     7
100
AcDbLine
 10
199.903
 20
82.59999999999999
 30
0.0
 11
171.903
 21
82.59999999999999
 31
0.0
  0
LINE
  5
BF
330
1F
100
AcDbEntity
  8
0
  6
Continuous
 62
     7
100
AcDbLine
 10
199.903
 20
82.59999999999999
 30
0.0
 11
199.903
 21
80.6
 31
0.0
  0
LINE
  5
C0
330
1F
100
AcDbEntity
  8
0
  6
Continuous
 62
     7
100
AcDbLine
 10
199.903
 20
80.6
 30
0.0
 11
185.903
 21
80.6
 31
0.0
  0
LINE
  5
C1
330
1F
100
AcDbEntity
  8
0
  6
Continuous
 62
     7
100
AcDbLine
 10
185.903
 20
80.6
 30
0.0
 11
171.903
 21
80.6
 31
0.0
  0
LINE
  5
C2
330
1F
100
AcDbEntity
  8
0
  6
Continuous
 62
     7
100
AcDbLine
 10
185.903
 20
246.6
 30
0.0
 11
199.903
 21
246.6
 31
0.0
  0
LINE
  5
C3
330
1F
100
AcDbEntity
  8
0
  6
Continuous
 62
     7
100
AcDbLine
 10
185.903
 20
246.6
 30
0.0
 11
171.903
 21
246.6
 31
0.0
  0
LINE
  5
C4
330
1F
100
AcDbEntity
  8
0
  6
Continuous
 62
     7
100
AcDbLine
 10
183.903
 20
248.05
 30
0.0
 11
183.903
 21
246.75
 31
0.0
  0
LINE
  5
C5
330
1F
100
AcDbEntity
  8
0
  6
Continuous
 62
     7
100
AcDbLine
 10
184.903
 20
248.05
 30
0.0
 11
184.903
 21
246.75
 31
0.0
  0
LINE
  5
C6
330
1F
100
AcDbEntity
  8
0
  6
Continuous
 62
     7
100
AcDbLine
 10
186.903
 20
248.05
 30
0.0
 11
186.903
 21
246.75
 31
0.0
  0
LINE
  5
C7
330
1F
100
AcDbEntity
  8
0
  6
Continuous
 62
     7
100
AcDbLine
 10
187.903
 20
248.05
 30
0.0
 11
187.903
 21
246.75
 31
0.0
  0
ARC
  5
C8
330
1F
100
AcDbEntity
  8
0
  6
Continuous
 62
     7
100
AcDbCircle
 10
187.403
 20
247.5
 30
0.0
 40
0.9
100
AcDbArc
 50
236.6
 51
303.4
  0
ARC
  5
C9
330
1F
100
AcDbEntity
  8
0
  6
Continuous
 62
     7
100
AcDbCircle
 10
185.903
 20
250.0
 30
0.0
 40
3.399999999999999
100
AcDbArc
 50
252.9
 51
287.1
  0
ARC
  5
CA
330
1F
100
AcDbEntity
  8
0
  6
Continuous
 62
     7
100
AcDbCircle
 10
184.403
 20
247.5
 30
0.0
 40
0.9
100
AcDbArc
 50
236.6
 51
303.4
  0
ARC
  5
CB
330
1F
100
AcDbEntity
  8
0
  6
Continuous
 62
     7
100
AcDbCircle
 10
184.403
 20
247.3
 30
0.0
 40
0.9
100
AcDbArc
 50
56.6
 51
123.4
  0
ARC
  5
CC
330
1F
100
AcDbEntity
  8
0
  6
Continuous
 62
     7
100
AcDbCircle
 10
185.903
 20
244.8
 30
0.0
 40
3.399999999999999
100
AcDbArc
 50
72.9
 51
107.1
  0
ARC
  5
CD
330
1F
100
AcDbEntity
  8
0
  6
Continuous
 62
     7
100
AcDbCircle
 10
187.403
 20
247.3
 30
0.0
 40
0.9
100
AcDbArc
 50
56.6
 51
123.4
  0
LINE
  5
CE
330
1F
100
AcDbEntity
  8
0
  6
Continuous
 62
     7
100
AcDbLine
 10
184.403
 20
248.2
 30
0.0
 11
187.403
 21
248.2
 31
0.0
  0
LINE
  5
CF
330
1F
100
AcDbEntity
  8
0
  6
Continuous
 62
     7
100
AcDbLine
 10
187.903
 20
79.15
 30
0.0
 11
187.903
 21
80.44999999999999
 31
0.0
  0
LINE
  5
D0
330
1F
100
AcDbEntity
  8
0
  6
Continuous
 62
     7
100
AcDbLine
 10
186.903
 20
79.15
 30
0.0
 11
186.903
 21
80.44999999999999
 31
0.0
  0
LINE
  5
D1
330
1F
100
AcDbEntity
  8
0
  6
Continuous
 62
     7
100
AcDbLine
 10
184.903
 20
79.15
 30
0.0
 11
184.903
 21
80.44999999999999
 31
0.0
  0
LINE
  5
D2
330
1F
100
AcDbEntity
  8
0
  6
Continuous
 62
     7
100
AcDbLine
 10
183.903
 20
79.15
 30
0.0
 11
183.903
 21
80.44999999999999
 31
0.0
  0
ARC
  5
D3
330
1F
100
AcDbEntity
  8
0
  6
Continuous
 62
     7
100
AcDbCircle
 10
184.403
 20
79.7
 30
0.0
 40
0.9
100
AcDbArc
 50
56.6
 51
123.4
  0
ARC
  5
D4
330
1F
100
AcDbEntity
  8
0
  6
Continuous
 62
     7
100
AcDbCircle
 10
185.903
 20
77.2
 30
0.0
 40
3.399999999999999
100
AcDbArc
 50
72.9
 51
107.1
  0
ARC
  5
D5
330
1F
100
AcDbEntity
  8
0
  6
Continuous
 62
     7
100
AcDbCircle
 10
187.403
 20
79.7
 30
0.0
 40
0.9
100
AcDbArc
 50
56.6
 51
123.4
  0
ARC
  5
D6
330
1F
100
AcDbEntity
  8
0
  6
Continuous
 62
     7
100
AcDbCircle
 10
187.403
 20
79.90000000000001
 30
0.0
 40
0.9
100
AcDbArc
 50
236.6
 51
303.4
  0
ARC
  5
D7
330
1F
100
AcDbEntity
  8
0
  6
Continuous
 62
     7
100
AcDbCircle
 10
185.903
 20
82.4
 30
0.0
 40
3.399999999999999
100
AcDbArc
 50
252.9
 51
287.1
  0
ARC
  5
D8
330
1F
100
AcDbEntity
  8
0
  6
Continuous
 62
     7
100
AcDbCircle
 10
184.403
 20
79.90000000000001
 30
0.0
 40
0.9
100
AcDbArc
 50
236.6
 51
303.4
  0
LINE
  5
D9
330
1F
100
AcDbEntity
  8
0
  6
Continuous
 62
     7
100
AcDbLine
 10
187.403
 20
79.0
 30
0.0
 11
184.403
 21
79.0
 31
0.0
  0
LINE
  5
DA
330
1F
100
AcDbEntity
  8
0
  6
Continuous
 62
     7
100
AcDbLine
 10
184.903
 20
78.0
 30
0.0
 11
184.903
 21
79.0
 31
0.0
  0
LINE
  5
DB
330
1F
100
AcDbEntity
  8
0
  6
Continuous
 62
     7
100
AcDbLine
 10
184.903
 20
78.0
 30
0.0
 11
186.903
 21
78.0
 31
0.0
  0
LINE
  5
DC
330
1F
100
AcDbEntity
  8
0
  6
Continuous
 62
     7
100
AcDbLine
 10
186.903
 20
78.0
 30
0.0
 11
186.903
 21
79.0
 31
0.0
  0
LINE
  5
DD
330
1F
100
AcDbEntity
  8
0
  6
Continuous
 62
     7
100
AcDbLine
 10
186.903
 20
252.2
 30
0.0
 11
186.903
 21
248.2
 31
0.0
  0
LINE
  5
DE
330
1F
100
AcDbEntity
  8
0
  6
Continuous
 62
     7
100
AcDbLine
 10
186.903
 20
252.2
 30
0.0
 11
184.903
 21
252.2
 31
0.0
  0
LINE
  5
DF
330
1F
100
AcDbEntity
  8
0
  6
Continuous
 62
     7
100
AcDbLine
 10
184.903
 20
252.2
 30
0.0
 11
184.903
 21
248.2
 31
0.0
  0
LINE
  5
E0
330
1F
100
AcDbEntity
  8
0
  6
Continuous
 62
     7
100
AcDbLine
 10
186.903
 20
246.6
 30
0.0
 11
186.903
 21
80.6
 31
0.0
  0
LINE
  5
E1
330
1F
100
AcDbEntity
  8
0
  6
Continuous
 62
     7
100
AcDbLine
 10
184.903
 20
246.6
 30
0.0
 11
184.903
 21
80.6
 31
0.0
  0
LINE
  5
E2
330
1F
100
AcDbEntity
  8
0
  6
Continuous
 62
     7
100
AcDbLine
 10
167.153
 20
78.59999999999999
 30
0.0
 11
167.153
 21
76.6
 31
0.0
  0
LINE
  5
E3
330
1F
100
AcDbEntity
  8
0
  6
Continuous
 62
     7
100
AcDbLine
 10
167.153
 20
76.6
 30
0.0
 11
185.903
 21
76.6
 31
0.0
  0
LINE
  5
E4
330
1F
100
AcDbEntity
  8
0
  6
Continuous
 62
     7
100
AcDbLine
 10
204.653
 20
78.59999999999999
 30
0.0
 11
204.653
 21
76.6
 31
0.0
  0
LINE
  5
E5
330
1F
100
AcDbEntity
  8
0
  6
Continuous
 62
     7
100
AcDbLine
 10
204.653
 20
76.6
 30
0.0
 11
185.903
 21
76.6
 31
0.0
  0
LINE
  5
E6
330
1F
100
AcDbEntity
  8
0
  6
Continuous
 62
     7
100
AcDbLine
 10
167.153
 20
250.6
 30
0.0
 11
184.903
 21
250.6
 31
0.0
  0
LINE
  5
E7
330
1F
100
AcDbEntity
  8
0
  6
Continuous
 62
     7
100
AcDbLine
 10
204.653
 20
250.6
 30
0.0
 11
186.903
 21
250.6
 31
0.0
  0
LINE
  5
E8
330
1F
100
AcDbEntity
  8
0
  6
Continuous
 62
     7
100
AcDbLine
 10
176.583
 20
272.6
 30
0.0
 11
177.114276549
 21
250.6
 31
0.0
  0
LINE
  5
E9
330
1F
100
AcDbEntity
  8
0
  6
Continuous
 62
     7
100
AcDbLine
 10
195.223
 20
272.6
 30
0.0
 11
194.691723451
 21
250.6
 31
0.0
  0
LINE
  5
EA
330
1F
100
AcDbEntity
  8
0
  6
Continuous
 62
     7
100
AcDbLine
 10
169.403
 20
256.6
 30
0.0
 11
169.403
 21
271.6
 31
0.0
  0
LINE
  5
EB
330
1F
100
AcDbEntity
  8
0
  6
Continuous
 62
     7
100
AcDbLine
 10
169.403
 20
271.6
 30
0.0
 11
170.403
 21
272.6
 31
0.0
  0
LINE
  5
EC
330
1F
100
AcDbEntity
  8
0
  6
Continuous
 62
     7
100
AcDbLine
 10
202.403
 20
271.6
 30
0.0
 11
202.403
 21
256.6
 31
0.0
  0
LINE
  5
ED
330
1F
100
AcDbEntity
  8
0
  6
Continuous
 62
     7
100
AcDbLine
 10
170.403
 20
272.6
 30
0.0
 11
201.403
 21
272.6
 31
0.0
  0
LINE
  5
EE
330
1F
100
AcDbEntity
  8
0
  6
Continuous
 62
     7
100
AcDbLine
 10
202.403
 20
271.6
 30
0.0
 11
201.403
 21
272.6
 31
0.0
  0
LINE
  5
EF
330
1F
100
AcDbEntity
  8
0
  6
Continuous
 62
     7
100
AcDbLine
 10
204.903
 20
247.6
 30
0.0
 11
204.903
 21
250.6
 31
0.0
  0
LINE
  5
F0
330
1F
100
AcDbEntity
  8
0
  6
Continuous
 62
     7
100
AcDbLine
 10
204.903
 20
250.6
 30
0.0
 11
166.903
 21
250.6
 31
0.0
  0
LINE
  5
F1
330
1F
100
AcDbEntity
  8
0
  6
Continuous
 62
     7
100
AcDbLine
 10
166.903
 20
250.6
 30
0.0
 11
166.903
 21
247.6
 31
0.0
  0
LINE
  5
F2
330
1F
100
AcDbEntity
  8
0
  6
Continuous
 62
     7
100
AcDbLine
 10
162.903
 20
256.6
 30
0.0
 11
169.403
 21
256.6
 31
0.0
  0
LINE
  5
F3
330
1F
100
AcDbEntity
  8
0
  6
Continuous
 62
     7
100
AcDbLine
 10
161.903
 20
255.6
 30
0.0
 11
161.903
 21
237.6
 31
0.0
  0
LINE
  5
F4
330
1F
100
AcDbEntity
  8
0
  6
Continuous
 62
     7
100
AcDbLine
 10
162.903
 20
256.6
 30
0.0
 11
161.903
 21
255.6
 31
0.0
  0
LINE
  5
F5
330
1F
100
AcDbEntity
  8
0
  6
Continuous
 62
     7
100
AcDbLine
 10
202.403
 20
256.6
 30
0.0
 11
208.903
 21
256.6
 31
0.0
  0
LINE
  5
F6
330
1F
100
AcDbEntity
  8
0
  6
Continuous
 62
     7
100
AcDbLine
 10
209.903
 20
255.6
 30
0.0
 11
209.903
 21
237.6
 31
0.0
  0
LINE
  5
F7
330
1F
100
AcDbEntity
  8
0
  6
Continuous
 62
     7
100
AcDbLine
 10
208.903
 20
256.6
 30
0.0
 11
209.903
 21
255.6
 31
0.0
  0
LINE
  5
F8
330
1F
100
AcDbEntity
  8
0
  6
Continuous
 62
     7
100
AcDbLine
 10
195.223
 20
54.6
 30
0.0
 11
194.691723451
 21
76.6
 31
0.0
  0
LINE
  5
F9
330
1F
100
AcDbEntity
  8
0
  6
Continuous
 62
     7
100
AcDbLine
 10
176.583
 20
54.6
 30
0.0
 11
177.114276549
 21
76.6
 31
0.0
  0
LINE
  5
FA
330
1F
100
AcDbEntity
  8
0
  6
Continuous
 62
     7
100
AcDbLine
 10
202.403
 20
70.59999999999999
 30
0.0
 11
202.403
 21
55.6
 31
0.0
  0
LINE
  5
FB
330
1F
100
AcDbEntity
  8
0
  6
Continuous
 62
     7
100
AcDbLine
 10
202.403
 20
55.6
 30
0.0
 11
201.403
 21
54.6
 31
0.0
  0
LINE
  5
FC
330
1F
100
AcDbEntity
  8
0
  6
Continuous
 62
     7
100
AcDbLine
 10
169.403
 20
55.6
 30
0.0
 11
169.403
 21
70.59999999999999
 31
0.0
  0
LINE
  5
FD
330
1F
100
AcDbEntity
  8
0
  6
Continuous
 62
     7
100
AcDbLine
 10
201.403
 20
54.6
 30
0.0
 11
170.403
 21
54.6
 31
0.0
  0
LINE
  5
FE
330
1F
100
AcDbEntity
  8
0
  6
Continuous
 62
     7
100
AcDbLine
 10
169.403
 20
55.6
 30
0.0
 11
170.403
 21
54.6
 31
0.0
  0
LINE
  5
FF
330
1F
100
AcDbEntity
  8
0
  6
Continuous
 62
     7
100
AcDbLine
 10
166.903
 20
79.59999999999999
 30
0.0
 11
166.903
 21
76.6
 31
0.0
  0
LINE
  5
100
330
1F
100
AcDbEntity
  8
0
  6
Continuous
 62
     7
100
AcDbLine
 10
166.903
 20
76.6
 30
0.0
 11
204.903
 21
76.6
 31
0.0
  0
LINE
  5
101
330
1F
100
AcDbEntity
  8
0
  6
Continuous
 62
     7
100
AcDbLine
 10
204.903
 20
76.6
 30
0.0
 11
204.903
 21
79.59999999999999
 31
0.0
  0
LINE
  5
102
330
1F
100
AcDbEntity
  8
0
  6
Continuous
 62
     7
100
AcDbLine
 10
208.903
 20
70.59999999999999
 30
0.0
 11
202.403
 21
70.59999999999999
 31
0.0
  0
LINE
  5
103
330
1F
100
AcDbEntity
  8
0
  6
Continuous
 62
     7
100
AcDbLine
 10
209.903
 20
71.6
 30
0.0
 11
209.903
 21
89.59999999999999
 31
0.0
  0
LINE
  5
104
330
1F
100
AcDbEntity
  8
0
  6
Continuous
 62
     7
100
AcDbLine
 10
208.903
 20
70.59999999999999
 30
0.0
 11
209.903
 21
71.6
 31
0.0
  0
LINE
  5
105
330
1F
100
AcDbEntity
  8
0
  6
Continuous
 62
     7
100
AcDbLine
 10
169.403
 20
70.59999999999999
 30
0.0
 11
162.903
 21
70.59999999999999
 31
0.0
  0
LINE
  5
106
330
1F
100
AcDbEntity
  8
0
  6
Continuous
 62
     7
100
AcDbLine
 10
161.903
 20
71.6
 30
0.0
 11
161.903
 21
89.59999999999999
 31
0.0
  0
LINE
  5
107
330
1F
100
AcDbEntity
  8
0
  6
Continuous
 62
     7
100
AcDbLine
 10
162.903
 20
70.59999999999999
 30
0.0
 11
161.903
 21
71.6
 31
0.0
  0
LINE
  5
108
330
1F
100
AcDbEntity
  8
0
  6
Continuous
 62
     7
100
AcDbLine
 10
200.903
 20
237.6
 30
0.0
 11
209.903
 21
237.6
 31
0.0
  0
LINE
  5
109
330
1F
100
AcDbEntity
  8
0
  6
Continuous
 62
     7
100
AcDbLine
 10
161.903
 20
237.6
 30
0.0
 11
170.903
 21
237.6
 31
0.0
  0
LINE
  5
10A
330
1F
100
AcDbEntity
  8
0
  6
Continuous
 62
     7
100
AcDbLine
 10
170.903
 20
89.59999999999999
 30
0.0
 11
161.903
 21
89.59999999999999
 31
0.0
  0
LINE
  5
10B
330
1F
100
AcDbEntity
  8
0
  6
Continuous
 62
     7
100
AcDbLine
 10
209.903
 20
89.59999999999999
 30
0.0
 11
200.903
 21
89.59999999999999
 31
0.0
  0
LINE
  5
10C
330
1F
100
AcDbEntity
  8
0
  6
Continuous
 62
     7
100
AcDbLine
 10
171.903
 20
76.6
 30
0.0
 11
171.903
 21
78.59999999999999
 31
0.0
  0
LINE
  5
10D
330
1F
100
AcDbEntity
  8
0
  6
Continuous
 62
     7
100
AcDbLine
 10
199.903
 20
76.6
 30
0.0
 11
199.903
 21
78.59999999999999
 31
0.0
  0
LINE
  5
10E
330
1F
100
AcDbEntity
  8
0
  6
Continuous
 62
     7
100
AcDbLine
 10
171.903
 20
250.6
 30
0.0
 11
171.903
 21
248.6
 31
0.0
  0
LINE
  5
10F
330
1F
100
AcDbEntity
  8
0
  6
Continuous
 62
     7
100
AcDbLine
 10
199.903
 20
250.6
 30
0.0
 11
199.903
 21
248.6
 31
0.0
  0
LINE
  5
110
330
1F
100
AcDbEntity
  8
0
  6
Continuous
 62
     7
100
AcDbLine
 10
188.403
 20
94.59999999999999
 30
0.0
 11
188.403
 21
82.59999999999999
 31
0.0
  0
LINE
  5
111
330
1F
100
AcDbEntity
  8
0
  6
Continuous
 62
     7
100
AcDbLine
 10
183.403
 20
94.59999999999999
 30
0.0
 11
183.403
 21
82.59999999999999
 31
0.0
  0
LINE
  5
112
330
1F
100
AcDbEntity
  8
0
  6
Continuous
 62
     7
100
AcDbLine
 10
188.403
 20
82.59999999999999
 30
0.0
 11
188.403
 21
80.6
 31
0.0
  0
LINE
  5
113
330
1F
100
AcDbEntity
  8
0
  6
Continuous
 62
     7
100
AcDbLine
 10
183.403
 20
82.59999999999999
 30
0.0
 11
183.403
 21
80.6
 31
0.0
  0
LINE
  5
114
330
1F
100
AcDbEntity
  8
0
  6
Continuous
 62
     7
100
AcDbLine
 10
188.403
 20
244.6
 30
0.0
 11
188.403
 21
246.6
 31
0.0
  0
LINE
  5
115
330
1F
100
AcDbEntity
  8
0
  6
Continuous
 62
     7
100
AcDbLine
 10
183.403
 20
244.6
 30
0.0
 11
183.403
 21
246.6
 31
0.0
  0
LINE
  5
116
330
1F
100
AcDbEntity
  8
0
  6
Continuous
 62
     7
100
AcDbLine
 10
167.153
 20
78.59999999999999
 30
0.0
 11
204.653
 21
78.59999999999999
 31
0.0
  0
LINE
  5
117
330
1F
100
AcDbEntity
  8
0
  6
Continuous
 62
     7
100
AcDbLine
 10
204.653
 20
250.6
 30
0.0
 11
204.653
 21
248.6
 31
0.0
  0
LINE
  5
118
330
1F
100
AcDbEntity
  8
0
  6
Continuous
 62
     7
100
AcDbLine
 10
204.653
 20
248.6
 30
0.0
 11
185.903
 21
248.6
 31
0.0
  0
LINE
  5
119
330
1F
100
AcDbEntity
  8
0
  6
Continuous
 62
     7
100
AcDbLine
 10
185.903
 20
248.6
 30
0.0
 11
167.153
 21
248.6
 31
0.0
  0
LINE
  5
11A
330
1F
100
AcDbEntity
  8
0
  6
Continuous
 62
     7
100
AcDbLine
 10
167.153
 20
248.6
 30
0.0
 11
167.153
 21
250.6
 31
0.0
  0
CIRCLE
  5
11B
330
1F
100
AcDbEntity
  8
0
  6
Continuous
 62
     7
100
AcDbCircle
 10
185.903
 20
347.744
 30
0.0
 40
8.788723451
  0
LINE
  5
11C
330
1F
100
AcDbEntity
  8
0
  6
Continuous
 62
     7
100
AcDbLine
 10
208.07610878
 20
356.928402377
 30
0.0
 11
195.087402377
 21
369.91710878
 31
0.0
  0
LINE
  5
11D
330
1F
100
AcDbEntity
  8
0
  6
Continuous
 62
     7
100
AcDbLine
 10
195.087402377
 20
369.91710878
 30
0.0
 11
176.718597623
 21
369.91710878
 31
0.0
  0
LINE
  5
11E
330
1F
100
AcDbEntity
  8
0
  6
Continuous
 62
     7
100
AcDbLine
 10
176.718597623
 20
369.91710878
 30
0.0
 11
163.72989122
 21
356.928402377
 31
0.0
  0
LINE
  5
11F
330
1F
100
AcDbEntity
  8
0
  6
Continuous
 62
     7
100
AcDbLine
 10
163.72989122
 20
356.928402377
 30
0.0
 11
163.72989122
 21
338.559597623
 31
0.0
  0
LINE
  5
120
330
1F
100
AcDbEntity
  8
0
  6
Continuous
 62
     7
100
AcDbLine
 10
163.72989122
 20
338.559597623
 30
0.0
 11
176.718597623
 21
325.57089122
 31
0.0
  0
LINE
  5
121
330
1F
100
AcDbEntity
  8
0
  6
Continuous
 62
     7
100
AcDbLine
 10
176.718597623
 20
325.57089122
 30
0.0
 11
195.087402377
 21
325.57089122
 31
0.0
  0
LINE
  5
122
330
1F
100
AcDbEntity
  8
0
  6
Continuous
 62
     7
100
AcDbLine
 10
195.087402377
 20
325.57089122
 30
0.0
 11
208.07610878
 21
338.559597623
 31
0.0
  0
LINE
  5
123
330
1F
100
AcDbEntity
  8
0
  6
Continuous
 62
     7
100
AcDbLine
 10
208.07610878
 20
338.559597623
 30
0.0
 11
208.07610878
 21
356.928402377
 31
0.0
  0
CIRCLE
  5
124
330
1F
100
AcDbEntity
  8
0
  6
Continuous
 62
     7
100
AcDbCircle
 10
185.903
 20
347.744
 30
0.0
 40
16.5
  0
LINE
  5
125
330
1F
100
AcDbEntity
  8
0
  6
Continuous
 62
     7
100
AcDbLine
 10
167.903
 20
248.6
 30
0.0
 11
167.903
 21
237.6
 31
0.0
  0
LINE
  5
126
330
1F
100
AcDbEntity
  8
0
  6
Continuous
 62
     7
100
AcDbLine
 10
203.903
 20
248.6
 30
0.0
 11
203.903
 21
237.6
 31
0.0
  0
LINE
  5
127
330
1F
100
AcDbEntity
  8
0
  6
Continuous
 62
     7
100
AcDbLine
 10
203.903
 20
78.59999999999999
 30
0.0
 11
203.903
 21
89.59999999999999
 31
0.0
  0
LINE
  5
128
330
1F
100
AcDbEntity
  8
0
  6
Continuous
 62
     7
100
AcDbLine
 10
167.903
 20
78.59999999999999
 30
0.0
 11
167.903
 21
89.59999999999999
 31
0.0
  0
LINE
  5
129
330
1F
100
AcDbEntity
  8
0
  6
Continuous
 62
     7
100
AcDbLine
 10
186.903
 20
138.8
 30
0.0
 11
193.503
 21
138.8
 31
0.0
  0
LINE
  5
12A
330
1F
100
AcDbEntity
  8
0
  6
Continuous
 62
     7
100
AcDbLine
 10
193.503
 20
138.8
 30
0.0
 11
193.503
 21
135.6
 31
0.0
  0
LINE
  5
12B
330
1F
100
AcDbEntity
  8
0
  6
Continuous
 62
     7
100
AcDbLine
 10
193.503
 20
135.6
 30
0.0
 11
191.903
 21
135.6
 31
0.0
  0
LINE
  5
12C
330
1F
100
AcDbEntity
  8
0
  6
Continuous
 62
     7
100
AcDbLine
 10
191.903
 20
135.6
 30
0.0
 11
191.903
 21
128.6
 31
0.0
  0
LINE
  5
12D
330
1F
100
AcDbEntity
  8
0
  6
Continuous
 62
     7
100
AcDbLine
 10
187.903
 20
124.6
 30
0.0
 11
191.903
 21
128.6
 31
0.0
  0
LINE
  5
12E
330
1F
100
AcDbEntity
  8
0
  6
Continuous
 62
     7
100
AcDbLine
 10
187.903
 20
124.6
 30
0.0
 11
186.903
 21
124.6
 31
0.0
  0
LINE
  5
12F
330
1F
100
AcDbEntity
  8
0
  6
Continuous
 62
     7
100
AcDbLine
 10
184.903
 20
138.8
 30
0.0
 11
178.303
 21
138.8
 31
0.0
  0
LINE
  5
130
330
1F
100
AcDbEntity
  8
0
  6
Continuous
 62
     7
100
AcDbLine
 10
178.303
 20
138.8
 30
0.0
 11
178.303
 21
135.6
 31
0.0
  0
LINE
  5
131
330
1F
100
AcDbEntity
  8
0
  6
Continuous
 62
     7
100
AcDbLine
 10
178.303
 20
135.6
 30
0.0
 11
179.903
 21
135.6
 31
0.0
  0
LINE
  5
132
330
1F
100
AcDbEntity
  8
0
  6
Continuous
 62
     7
100
AcDbLine
 10
179.903
 20
135.6
 30
0.0
 11
179.903
 21
128.6
 31
0.0
  0
LINE
  5
133
330
1F
100
AcDbEntity
  8
0
  6
Continuous
 62
     7
100
AcDbLine
 10
183.903
 20
124.6
 30
0.0
 11
179.903
 21
128.6
 31
0.0
  0
LINE
  5
134
330
1F
100
AcDbEntity
  8
0
  6
Continuous
 62
     7
100
AcDbLine
 10
183.903
 20
124.6
 30
0.0
 11
184.903
 21
124.6
 31
0.0
  0
LINE
  5
135
330
1F
100
AcDbEntity
  8
0
  6
Continuous
 62
     7
100
AcDbLine
 10
186.903
 20
94.59999999999999
 30
0.0
 11
188.403
 21
94.59999999999999
 31
0.0
  0
LINE
  5
136
330
1F
100
AcDbEntity
  8
0
  6
Continuous
 62
     7
100
AcDbLine
 10
183.403
 20
94.59999999999999
 30
0.0
 11
184.903
 21
94.59999999999999
 31
0.0
  0
ARC
  5
137
330
1F
100
AcDbEntity
  8
0
  6
Continuous
 62
     7
100
AcDbCircle
 10
692.623
 20
431.243
 30
0.0
 40
15.185216323
100
AcDbArc
 50
0.0
 51
180.0
  0
ARC
  5
138
330
1F
100
AcDbEntity
  8
0
  6
Continuous
 62
     7
100
AcDbCircle
 10
692.623
 20
431.243
 30
0.0
 40
26.0
100
AcDbArc
 50
0.0
 51
180.0
  0
ARC
  5
139
330
1F
100
AcDbEntity
  8
0
  6
Continuous
 62
     7
100
AcDbCircle
 10
692.623
 20
431.243
 30
0.0
 40
30.0
100
AcDbArc
 50
0.0
 51
180.0
  0
ARC
  5
13A
330
1F
100
AcDbEntity
  8
0
  6
Continuous
 62
     7
100
AcDbCircle
 10
692.623
 20
431.243
 30
0.0
 40
35.0
100
AcDbArc
 50
0.0
 51
180.0
  0
LINE
  5
13B
330
1F
100
AcDbEntity
  8
0
  6
Continuous
 62
     7
100
AcDbLine
 10
692.623
 20
461.265213998
 30
0.0
 11
666.623
 21
446.254106999
 31
0.0
  0
LINE
  5
13C
330
1F
100
AcDbEntity
  8
0
  6
Continuous
 62
     7
100
AcDbLine
 10
718.6230000000001
 20
446.254106999
 30
0.0
 11
692.623
 21
461.265213998
 31
0.0
  0
LINE
  5
13D
330
1F
100
AcDbEntity
  8
0
  6
Continuous
 62
     7
100
AcDbLine
 10
666.623
 20
446.254106999
 30
0.0
 11
666.623
 21
431.243
 31
0.0
  0
LINE
  5
13E
330
1F
100
AcDbEntity
  8
0
  6
Continuous
 62
     7
100
AcDbLine
 10
718.6230000000001
 20
431.243
 30
0.0
 11
718.6230000000001
 21
446.254106999
 31
0.0
  0
ARC
  5
13F
330
1F
100
AcDbEntity
  8
0
  6
Continuous
 62
     7
100
AcDbCircle
 10
692.623
 20
431.243
 30
0.0
 40
15.185216323
100
AcDbArc
 50
180.0
 51
0.0
  0
ARC
  5
140
330
1F
100
AcDbEntity
  8
0
  6
Continuous
 62
     7
100
AcDbCircle
 10
692.623
 20
431.243
 30
0.0
 40
26.0
100
AcDbArc
 50
180.0
 51
0.0
  0
ARC
  5
141
330
1F
100
AcDbEntity
  8
0
  6
Continuous
 62
     7
100
AcDbCircle
 10
692.623
 20
431.243
 30
0.0
 40
30.0
100
AcDbArc
 50
180.0
 51
0.0
  0
ARC
  5
142
330
1F
100
AcDbEntity
  8
0
  6
Continuous
 62
     7
100
AcDbCircle
 10
692.623
 20
431.243
 30
0.0
 40
35.0
100
AcDbArc
 50
180.0
 51
0.0
  0
LINE
  5
143
330
1F
100
AcDbEntity
  8
0
  6
Continuous
 62
     7
100
AcDbLine
 10
692.623
 20
401.2207860019999
 30
0.0
 11
666.623
 21
416.231893001
 31
0.0
  0
LINE
  5
144
330
1F
100
AcDbEntity
  8
0
  6
Continuous
 62
     7
100
AcDbLine
 10
718.6230000000001
 20
416.231893001
 30
0.0
 11
692.623
 21
401.2207860019999
 31
0.0
  0
LINE
  5
145
330
1F
100
AcDbEntity
  8
0
  6
Continuous
 62
     7
100
AcDbLine
 10
666.623
 20
416.231893001
 30
0.0
 11
666.623
 21
431.243
 31
0.0
  0
LINE
  5
146
330
1F
100
AcDbEntity
  8
0
  6
Continuous
 62
     7
100
AcDbLine
 10
718.6230000000001
 20
431.243
 30
0.0
 11
718.6230000000001
 21
416.231893001
 31
0.0
  0
LINE
  5
147
330
1F
100
AcDbEntity
  8
0
  6
Continuous
 62
     7
100
AcDbLine
 10
471.7929999999999
 20
279.6
 30
0.0
 11
471.7929999999999
 21
275.6
 31
0.0
  0
LINE
  5
148
330
1F
100
AcDbEntity
  8
0
  6
Continuous
 62
     7
100
AcDbLine
 10
471.7929999999999
 20
275.6
 30
0.0
 11
447.7929999999999
 21
275.6
 31
0.0
  0
LINE
  5
149
330
1F
100
AcDbEntity
  8
0
  6
Continuous
 62
     7
100
AcDbLine
 10
461.293
 20
93.59999999999999
 30
0.0
 11
470.293
 21
275.6
 31
0.0
  0
LINE
  5
14A
330
1F
100
AcDbEntity
  8
0
  6
Continuous
 62
     7
100
AcDbLine
 10
447.7929999999999
 20
279.6
 30
0.0
 11
476.7929999999999
 21
279.6
 31
0.0
  0
LINE
  5
14B
330
1F
100
AcDbEntity
  8
0
  6
Continuous
 62
     7
100
AcDbLine
 10
476.7929999999999
 20
279.6
 30
0.0
 11
477.793
 21
278.6
 31
0.0
  0
LINE
  5
14C
330
1F
100
AcDbEntity
  8
0
  6
Continuous
 62
     7
100
AcDbLine
 10
477.793
 20
278.6
 30
0.0
 11
477.793
 21
265.6
 31
0.0
  0
LINE
  5
14D
330
1F
100
AcDbEntity
  8
0
  6
Continuous
 62
     7
100
AcDbLine
 10
476.7929999999999
 20
264.6
 30
0.0
 11
477.793
 21
265.6
 31
0.0
  0
LINE
  5
14E
330
1F
100
AcDbEntity
  8
0
  6
Continuous
 62
     7
100
AcDbLine
 10
476.7929999999999
 20
264.6
 30
0.0
 11
476.2469420659999
 21
264.6
 31
0.0
  0
LINE
  5
14F
330
1F
100
AcDbEntity
  8
0
  6
Continuous
 62
     7
100
AcDbLine
 10
476.2469420659999
 20
264.6
 30
0.0
 11
475.248052709
 21
263.647117423
 31
0.0
  0
LINE
  5
150
330
1F
100
AcDbEntity
  8
0
  6
Continuous
 62
     7
100
AcDbLine
 10
423.793
 20
279.6
 30
0.0
 11
423.793
 21
275.6
 31
0.0
  0
LINE
  5
151
330
1F
100
AcDbEntity
  8
0
  6
Continuous
 62
     7
100
AcDbLine
 10
423.793
 20
275.6
 30
0.0
 11
447.7929999999999
 21
275.6
 31
0.0
  0
LINE
  5
152
330
1F
100
AcDbEntity
  8
0
  6
Continuous
 62
     7
100
AcDbLine
 10
434.2929999999999
 20
93.59999999999999
 30
0.0
 11
425.293
 21
275.6
 31
0.0
  0
LINE
  5
153
330
1F
100
AcDbEntity
  8
0
  6
Continuous
 62
     7
100
AcDbLine
 10
447.7929999999999
 20
279.6
 30
0.0
 11
418.7929999999999
 21
279.6
 31
0.0
  0
LINE
  5
154
330
1F
100
AcDbEntity
  8
0
  6
Continuous
 62
     7
100
AcDbLine
 10
418.7929999999999
 20
279.6
 30
0.0
 11
417.7929999999999
 21
278.6
 31
0.0
  0
LINE
  5
155
330
1F
100
AcDbEntity
  8
0
  6
Continuous
 62
     7
100
AcDbLine
 10
417.7929999999999
 20
278.6
 30
0.0
 11
417.7929999999999
 21
265.6
 31
0.0
  0
LINE
  5
156
330
1F
100
AcDbEntity
  8
0
  6
Continuous
 62
     7
100
AcDbLine
 10
418.7929999999999
 20
264.6
 30
0.0
 11
417.7929999999999
 21
265.6
 31
0.0
  0
LINE
  5
157
330
1F
100
AcDbEntity
  8
0
  6
Continuous
 62
     7
100
AcDbLine
 10
418.7929999999999
 20
264.6
 30
0.0
 11
419.339057934
 21
264.6
 31
0.0
  0
LINE
  5
158
330
1F
100
AcDbEntity
  8
0
  6
Continuous
 62
     7
100
AcDbLine
 10
419.339057934
 20
264.6
 30
0.0
 11
420.337947291
 21
263.647117423
 31
0.0
  0
LINE
  5
159
330
1F
100
AcDbEntity
  8
0
  6
Continuous
 62
     7
100
AcDbLine
 10
467.8446148509999
 20
106.694234845
 30
0.0
 11
475.248052709
 21
263.647117423
 31
0.0
  0
LINE
  5
15A
330
1F
100
AcDbEntity
  8
0
  6
Continuous
 62
     7
100
AcDbLine
 10
427.741385149
 20
106.694234845
 30
0.0
 11
420.337947291
 21
263.647117423
 31
0.0
  0
LINE
  5
15B
330
1F
100
AcDbEntity
  8
0
  6
Continuous
 62
     7
100
AcDbLine
 10
447.7929999999999
 20
89.59999999999999
 30
0.0
 11
467.7929999999999
 21
89.59999999999999
 31
0.0
  0
LINE
  5
15C
330
1F
100
AcDbEntity
  8
0
  6
Continuous
 62
     7
100
AcDbLine
 10
467.7929999999999
 20
89.59999999999999
 30
0.0
 11
467.7929999999999
 21
93.59999999999999
 31
0.0
  0
LINE
  5
15D
330
1F
100
AcDbEntity
  8
0
  6
Continuous
 62
     7
100
AcDbLine
 10
467.7929999999999
 20
93.59999999999999
 30
0.0
 11
447.7929999999999
 21
93.59999999999999
 31
0.0
  0
LINE
  5
15E
330
1F
100
AcDbEntity
  8
0
  6
Continuous
 62
     7
100
AcDbLine
 10
447.7929999999999
 20
89.59999999999999
 30
0.0
 11
472.7929999999999
 21
89.59999999999999
 31
0.0
  0
LINE
  5
15F
330
1F
100
AcDbEntity
  8
0
  6
Continuous
 62
     7
100
AcDbLine
 10
472.7929999999999
 20
89.59999999999999
 30
0.0
 11
473.793
 21
90.6
 31
0.0
  0
LINE
  5
160
330
1F
100
AcDbEntity
  8
0
  6
Continuous
 62
     7
100
AcDbLine
 10
447.7929999999999
 20
89.59999999999999
 30
0.0
 11
427.793
 21
89.59999999999999
 31
0.0
  0
LINE
  5
161
330
1F
100
AcDbEntity
  8
0
  6
Continuous
 62
     7
100
AcDbLine
 10
427.793
 20
89.59999999999999
 30
0.0
 11
427.793
 21
93.59999999999999
 31
0.0
  0
LINE
  5
162
330
1F
100
AcDbEntity
  8
0
  6
Continuous
 62
     7
100
AcDbLine
 10
427.793
 20
93.59999999999999
 30
0.0
 11
447.7929999999999
 21
93.59999999999999
 31
0.0
  0
LINE
  5
163
330
1F
100
AcDbEntity
  8
0
  6
Continuous
 62
     7
100
AcDbLine
 10
447.7929999999999
 20
89.59999999999999
 30
0.0
 11
422.7929999999999
 21
89.59999999999999
 31
0.0
  0
LINE
  5
164
330
1F
100
AcDbEntity
  8
0
  6
Continuous
 62
     7
100
AcDbLine
 10
422.7929999999999
 20
89.59999999999999
 30
0.0
 11
421.7929999999999
 21
90.6
 31
0.0
  0
LINE
  5
165
330
1F
100
AcDbEntity
  8
0
  6
Continuous
 62
     7
100
AcDbLine
 10
421.7929999999999
 20
103.6
 30
0.0
 11
422.7929999999999
 21
104.6
 31
0.0
  0
LINE
  5
166
330
1F
100
AcDbEntity
  8
0
  6
Continuous
 62
     7
100
AcDbLine
 10
421.7929999999999
 20
90.6
 30
0.0
 11
421.7929999999999
 21
103.6
 31
0.0
  0
LINE
  5
167
330
1F
100
AcDbEntity
  8
0
  6
Continuous
 62
     7
100
AcDbLine
 10
473.793
 20
103.6
 30
0.0
 11
472.7929999999999
 21
104.6
 31
0.0
  0
LINE
  5
168
330
1F
100
AcDbEntity
  8
0
  6
Continuous
 62
     7
100
AcDbLine
 10
473.793
 20
90.6
 30
0.0
 11
473.793
 21
103.6
 31
0.0
  0
LINE
  5
169
330
1F
100
AcDbEntity
  8
0
  6
Continuous
 62
     7
100
AcDbLine
 10
472.7929999999999
 20
104.6
 30
0.0
 11
469.842393566
 21
104.6
 31
0.0
  0
ARC
  5
16A
330
1F
100
AcDbEntity
  8
0
  6
Continuous
 62
     7
100
AcDbCircle
 10
469.842393566
 20
106.6
 30
0.0
 40
2.0
100
AcDbArc
 50
177.299370663
 51
270.0
  0
LINE
  5
16B
330
1F
100
AcDbEntity
  8
0
  6
Continuous
 62
     7
100
AcDbLine
 10
422.7929999999999
 20
104.6
 30
0.0
 11
425.743606434
 21
104.6
 31
0.0
  0
ARC
  5
16C
330
1F
100
AcDbEntity
  8
0
  6
Continuous
 62
     7
100
AcDbCircle
 10
425.743606434
 20
106.6
 30
0.0
 40
2.0
100
AcDbArc
 50
270.0
 51
2.700629337
  0
LINE
  5
16D
330
1F
100
AcDbEntity
  8
0
  6
Continuous
 62
     7
100
AcDbLine
 10
472.7929999999999
 20
90.6
 30
0.0
 11
472.7929999999999
 21
102.6
 31
0.0
  0
LINE
  5
16E
330
1F
100
AcDbEntity
  8
0
  6
Continuous
 62
     7
100
AcDbLine
 10
422.7929999999999
 20
90.6
 30
0.0
 11
422.7929999999999
 21
102.6
 31
0.0
  0
LINE
  5
16F
330
1F
100
AcDbEntity
  8
0
  6
Continuous
 62
     7
100
AcDbLine
 10
476.7929999999999
 20
278.6
 30
0.0
 11
476.7929999999999
 21
266.6
 31
0.0
  0
LINE
  5
170
330
1F
100
AcDbEntity
  8
0
  6
Continuous
 62
     7
100
AcDbLine
 10
418.7929999999999
 20
278.6
 30
0.0
 11
418.7929999999999
 21
266.6
 31
0.0
  0
LINE
  5
171
330
1F
100
AcDbEntity
  8
0
  6
Continuous
 62
     7
100
AcDbLine
 10
467.693
 20
91.09999999999999
 30
0.0
 11
467.693
 21
93.59999999999999
 31
0.0
  0
LINE
  5
172
330
1F
100
AcDbEntity
  8
0
  6
Continuous
 62
     7
100
AcDbLine
 10
467.693
 20
93.59999999999999
 30
0.0
 11
427.893
 21
93.59999999999999
 31
0.0
  0
LINE
  5
173
330
1F
100
AcDbEntity
  8
0
  6
Continuous
 62
     7
100
AcDbLine
 10
427.893
 20
93.59999999999999
 30
0.0
 11
427.893
 21
91.09999999999999
 31
0.0
  0
LINE
  5
174
330
1F
100
AcDbEntity
  8
0
  6
Continuous
 62
     7
100
AcDbLine
 10
427.893
 20
91.09999999999999
 30
0.0
 11
467.693
 21
91.09999999999999
 31
0.0
  0
LINE
  5
175
330
1F
100
AcDbEntity
  8
0
  6
Continuous
 62
     7
100
AcDbLine
 10
451.7929999999999
 20
91.09999999999999
 30
0.0
 11
451.7929999999999
 21
93.59999999999999
 31
0.0
  0
LINE
  5
176
330
1F
100
AcDbEntity
  8
0
  6
Continuous
 62
     7
100
AcDbLine
 10
443.793
 20
91.09999999999999
 30
0.0
 11
443.793
 21
93.59999999999999
 31
0.0
  0
LINE
  5
177
330
1F
100
AcDbEntity
  8
0
  6
Continuous
 62
     7
100
AcDbLine
 10
431.793
 20
91.09999999999999
 30
0.0
 11
431.793
 21
93.59999999999999
 31
0.0
  0
LINE
  5
178
330
1F
100
AcDbEntity
  8
0
  6
Continuous
 62
     7
100
AcDbLine
 10
463.7929999999999
 20
91.09999999999999
 30
0.0
 11
463.7929999999999
 21
93.59999999999999
 31
0.0
  0
LINE
  5
179
330
1F
100
AcDbEntity
  8
0
  6
Continuous
 62
     7
100
AcDbLine
 10
423.893
 20
278.1
 30
0.0
 11
423.893
 21
275.6
 31
0.0
  0
LINE
  5
17A
330
1F
100
AcDbEntity
  8
0
  6
Continuous
 62
     7
100
AcDbLine
 10
426.7929999999999
 20
275.6
 30
0.0
 11
426.7929999999999
 21
278.1
 31
0.0
  0
LINE
  5
17B
330
1F
100
AcDbEntity
  8
0
  6
Continuous
 62
     7
100
AcDbLine
 10
443.793
 20
275.6
 30
0.0
 11
443.793
 21
278.1
 31
0.0
  0
LINE
  5
17C
330
1F
100
AcDbEntity
  8
0
  6
Continuous
 62
     7
100
AcDbLine
 10
446.543
 20
278.1
 30
0.0
 11
446.543
 21
275.6
 31
0.0
  0
LINE
  5
17D
330
1F
100
AcDbEntity
  8
0
  6
Continuous
 62
     7
100
AcDbLine
 10
471.693
 20
275.6
 30
0.0
 11
471.693
 21
278.1
 31
0.0
  0
LINE
  5
17E
330
1F
100
AcDbEntity
  8
0
  6
Continuous
 62
     7
100
AcDbLine
 10
468.793
 20
278.1
 30
0.0
 11
468.793
 21
275.6
 31
0.0
  0
LINE
  5
17F
330
1F
100
AcDbEntity
  8
0
  6
Continuous
 62
     7
100
AcDbLine
 10
451.7929999999999
 20
278.1
 30
0.0
 11
451.7929999999999
 21
275.6
 31
0.0
  0
LINE
  5
180
330
1F
100
AcDbEntity
  8
0
  6
Continuous
 62
     7
100
AcDbLine
 10
449.0429999999999
 20
275.6
 30
0.0
 11
449.0429999999999
 21
278.1
 31
0.0
  0
LINE
  5
181
330
1F
100
AcDbEntity
  8
0
  6
Continuous
 62
     7
100
AcDbLine
 10
471.693
 20
278.1
 30
0.0
 11
423.893
 21
278.1
 31
0.0
  0
LINE
  5
182
330
1F
100
AcDbEntity
  8
0
  6
Continuous
 62
     7
100
AcDbLine
 10
423.893
 20
275.6
 30
0.0
 11
471.693
 21
275.6
 31
0.0
  0
LINE
  5
183
330
1F
100
AcDbEntity
  8
0
  6
Continuous
 62
     7
100
AcDbLine
 10
449.0429999999999
 20
87.15000000000001
 30
0.0
 11
449.0429999999999
 21
283.7
 31
0.0
  0
LINE
  5
184
330
1F
100
AcDbEntity
  8
0
  6
Continuous
 62
     7
100
AcDbLine
 10
446.543
 20
283.7
 30
0.0
 11
446.543
 21
87.15000000000001
 31
0.0
  0
LINE
  5
185
330
1F
100
AcDbEntity
  8
0
  6
Continuous
 62
     7
100
AcDbLine
 10
446.543
 20
87.15000000000001
 30
0.0
 11
449.0429999999999
 21
87.15000000000001
 31
0.0
  0
LINE
  5
186
330
1F
100
AcDbEntity
  8
0
  6
Continuous
 62
     7
100
AcDbLine
 10
449.0429999999999
 20
283.7
 30
0.0
 11
446.543
 21
283.7
 31
0.0
  0
LINE
  5
187
330
1F
100
AcDbEntity
  8
0
  6
Continuous
 62
     7
100
AcDbLine
 10
445.493
 20
278.1
 30
0.0
 11
445.493
 21
280.35
 31
0.0
  0
LINE
  5
188
330
1F
100
AcDbEntity
  8
0
  6
Continuous
 62
     7
100
AcDbLine
 10
446.643
 20
278.1
 30
0.0
 11
446.643
 21
280.3
 31
0.0
  0
LINE
  5
189
330
1F
100
AcDbEntity
  8
0
  6
Continuous
 62
     7
100
AcDbLine
 10
448.943
 20
278.1
 30
0.0
 11
448.943
 21
280.3
 31
0.0
  0
LINE
  5
18A
330
1F
100
AcDbEntity
  8
0
  6
Continuous
 62
     7
100
AcDbLine
 10
450.093
 20
278.1
 30
0.0
 11
450.093
 21
280.35
 31
0.0
  0
LINE
  5
18B
330
1F
100
AcDbEntity
  8
0
  6
Continuous
 62
     7
100
AcDbLine
 10
445.493
 20
278.1
 30
0.0
 11
450.093
 21
278.1
 31
0.0
  0
ARC
  5
18C
330
1F
100
AcDbEntity
  8
0
  6
Continuous
 62
     7
100
AcDbCircle
 10
447.7929999999999
 20
277.1
 30
0.0
 40
3.399999999999999
100
AcDbArc
 50
70.3
 51
109.7
  0
LINE
  5
18D
330
1F
100
AcDbEntity
  8
0
  6
Continuous
 62
     7
100
AcDbLine
 10
446.093
 20
280.5
 30
0.0
 11
449.493
 21
280.5
 31
0.0
  0
ARC
  5
18E
330
1F
100
AcDbEntity
  8
0
  6
Continuous
 62
     7
100
AcDbCircle
 10
446.043
 20
279.3
 30
0.0
 40
1.199999999999999
100
AcDbArc
 50
60.7
 51
117.6
  0
ARC
  5
18F
330
1F
100
AcDbEntity
  8
0
  6
Continuous
 62
     7
100
AcDbCircle
 10
449.5429999999999
 20
279.3
 30
0.0
 40
1.199999999999999
100
AcDbArc
 50
62.4
 51
119.3
  0
LINE
  5
190
330
1F
100
AcDbEntity
  8
0
  6
Continuous
 62
     7
100
AcDbLine
 10
450.093
 20
91.09999999999999
 30
0.0
 11
450.093
 21
88.84999999999999
 31
0.0
  0
LINE
  5
191
330
1F
100
AcDbEntity
  8
0
  6
Continuous
 62
     7
100
AcDbLine
 10
448.943
 20
91.09999999999999
 30
0.0
 11
448.943
 21
88.9
 31
0.0
  0
LINE
  5
192
330
1F
100
AcDbEntity
  8
0
  6
Continuous
 62
     7
100
AcDbLine
 10
446.643
 20
91.09999999999999
 30
0.0
 11
446.643
 21
88.9
 31
0.0
  0
LINE
  5
193
330
1F
100
AcDbEntity
  8
0
  6
Continuous
 62
     7
100
AcDbLine
 10
445.493
 20
91.09999999999999
 30
0.0
 11
445.493
 21
88.84999999999999
 31
0.0
  0
LINE
  5
194
330
1F
100
AcDbEntity
  8
0
  6
Continuous
 62
     7
100
AcDbLine
 10
450.093
 20
91.09999999999999
 30
0.0
 11
445.493
 21
91.09999999999999
 31
0.0
  0
ARC
  5
195
330
1F
100
AcDbEntity
  8
0
  6
Continuous
 62
     7
100
AcDbCircle
 10
447.7929999999999
 20
92.09999999999999
 30
0.0
 40
3.399999999999999
100
AcDbArc
 50
250.3
 51
289.7
  0
LINE
  5
196
330
1F
100
AcDbEntity
  8
0
  6
Continuous
 62
     7
100
AcDbLine
 10
449.493
 20
88.7
 30
0.0
 11
446.093
 21
88.7
 31
0.0
  0
ARC
  5
197
330
1F
100
AcDbEntity
  8
0
  6
Continuous
 62
     7
100
AcDbCircle
 10
449.5429999999999
 20
89.9
 30
0.0
 40
1.199999999999999
100
AcDbArc
 50
240.7
 51
297.6
  0
ARC
  5
198
330
1F
100
AcDbEntity
  8
0
  6
Continuous
 62
     7
100
AcDbCircle
 10
446.043
 20
89.9
 30
0.0
 40
1.199999999999999
100
AcDbArc
 50
242.4
 51
299.3
  0
LINE
  5
199
330
1F
100
AcDbEntity
  8
0
  6
Continuous
 62
     7
100
AcDbLine
 10
412.793
 20
266.6
 30
0.0
 11
412.793
 21
286.6
 31
0.0
  0
LINE
  5
19A
330
1F
100
AcDbEntity
  8
0
  6
Continuous
 62
     7
100
AcDbLine
 10
482.793
 20
286.6
 30
0.0
 11
482.793
 21
266.6
 31
0.0
  0
LINE
  5
19B
330
1F
100
AcDbEntity
  8
0
  6
Continuous
 62
     7
100
AcDbLine
 10
412.793
 20
286.6
 30
0.0
 11
422.7929999999999
 21
294.6
 31
0.0
  0
LINE
  5
19C
330
1F
100
AcDbEntity
  8
0
  6
Continuous
 62
     7
100
AcDbLine
 10
472.7929999999999
 20
294.6
 30
0.0
 11
482.793
 21
286.6
 31
0.0
  0
LINE
  5
19D
330
1F
100
AcDbEntity
  8
0
  6
Continuous
 62
     7
100
AcDbLine
 10
422.7929999999999
 20
294.6
 30
0.0
 11
422.7929999999999
 21
309.6
 31
0.0
  0
LINE
  5
19E
330
1F
100
AcDbEntity
  8
0
  6
Continuous
 62
     7
100
AcDbLine
 10
422.7929999999999
 20
309.6
 30
0.0
 11
425.7929999999999
 21
314.6
 31
0.0
  0
LINE
  5
19F
330
1F
100
AcDbEntity
  8
0
  6
Continuous
 62
     7
100
AcDbLine
 10
425.7929999999999
 20
314.6
 30
0.0
 11
469.793
 21
314.6
 31
0.0
  0
LINE
  5
1A0
330
1F
100
AcDbEntity
  8
0
  6
Continuous
 62
     7
100
AcDbLine
 10
469.793
 20
314.6
 30
0.0
 11
472.7929999999999
 21
309.6
 31
0.0
  0
LINE
  5
1A1
330
1F
100
AcDbEntity
  8
0
  6
Continuous
 62
     7
100
AcDbLine
 10
472.7929999999999
 20
309.6
 30
0.0
 11
472.7929999999999
 21
294.6
 31
0.0
  0
LINE
  5
1A2
330
1F
100
AcDbEntity
  8
0
  6
Continuous
 62
     7
100
AcDbLine
 10
435.733
 20
314.6
 30
0.0
 11
436.3580312339999
 21
294.6
 31
0.0
  0
LINE
  5
1A3
330
1F
100
AcDbEntity
  8
0
  6
Continuous
 62
     7
100
AcDbLine
 10
460.387968766
 20
294.6
 30
0.0
 11
435.198031234
 21
294.6
 31
0.0
  0
LINE
  5
1A4
330
1F
100
AcDbEntity
  8
0
  6
Continuous
 62
     7
100
AcDbLine
 10
459.853
 20
314.6
 30
0.0
 11
459.227968766
 21
294.6
 31
0.0
  0
LINE
  5
1A5
330
1F
100
AcDbEntity
  8
0
  6
Continuous
 62
     7
100
AcDbLine
 10
436.3580312339999
 20
294.6
 30
0.0
 11
426.7929999999999
 21
281.6
 31
0.0
  0
LINE
  5
1A6
330
1F
100
AcDbEntity
  8
0
  6
Continuous
 62
     7
100
AcDbLine
 10
459.227968766
 20
294.6
 30
0.0
 11
468.793
 21
281.6
 31
0.0
  0
LINE
  5
1A7
330
1F
100
AcDbEntity
  8
0
  6
Continuous
 62
     7
100
AcDbLine
 10
477.793
 20
278.6
 30
0.0
 11
477.793
 21
281.6
 31
0.0
  0
LINE
  5
1A8
330
1F
100
AcDbEntity
  8
0
  6
Continuous
 62
     7
100
AcDbLine
 10
476.7929999999999
 20
278.6
 30
0.0
 11
476.7929999999999
 21
266.6
 31
0.0
  0
LINE
  5
1A9
330
1F
100
AcDbEntity
  8
0
  6
Continuous
 62
     7
100
AcDbLine
 10
417.7929999999999
 20
281.6
 30
0.0
 11
417.7929999999999
 21
278.6
 31
0.0
  0
LINE
  5
1AA
330
1F
100
AcDbEntity
  8
0
  6
Continuous
 62
     7
100
AcDbLine
 10
418.7929999999999
 20
278.6
 30
0.0
 11
418.7929999999999
 21
266.6
 31
0.0
  0
LINE
  5
1AB
330
1F
100
AcDbEntity
  8
0
  6
Continuous
 62
     7
100
AcDbLine
 10
477.793
 20
281.6
 30
0.0
 11
417.7929999999999
 21
281.6
 31
0.0
  0
LINE
  5
1AC
330
1F
100
AcDbEntity
  8
0
  6
Continuous
 62
     7
100
AcDbLine
 10
472.7929999999999
 20
74.59999999999999
 30
0.0
 11
472.7929999999999
 21
59.6
 31
0.0
  0
LINE
  5
1AD
330
1F
100
AcDbEntity
  8
0
  6
Continuous
 62
     7
100
AcDbLine
 10
472.7929999999999
 20
59.6
 30
0.0
 11
469.793
 21
54.6
 31
0.0
  0
LINE
  5
1AE
330
1F
100
AcDbEntity
  8
0
  6
Continuous
 62
     7
100
AcDbLine
 10
469.793
 20
54.6
 30
0.0
 11
425.7929999999999
 21
54.6
 31
0.0
  0
LINE
  5
1AF
330
1F
100
AcDbEntity
  8
0
  6
Continuous
 62
     7
100
AcDbLine
 10
425.7929999999999
 20
54.6
 30
0.0
 11
422.7929999999999
 21
59.6
 31
0.0
  0
LINE
  5
1B0
330
1F
100
AcDbEntity
  8
0
  6
Continuous
 62
     7
100
AcDbLine
 10
422.7929999999999
 20
59.6
 30
0.0
 11
422.7929999999999
 21
74.59999999999999
 31
0.0
  0
LINE
  5
1B1
330
1F
100
AcDbEntity
  8
0
  6
Continuous
 62
     7
100
AcDbLine
 10
459.853
 20
54.6
 30
0.0
 11
459.227968766
 21
74.59999999999999
 31
0.0
  0
LINE
  5
1B2
330
1F
100
AcDbEntity
  8
0
  6
Continuous
 62
     7
100
AcDbLine
 10
435.198031234
 20
74.59999999999999
 30
0.0
 11
460.387968766
 21
74.59999999999999
 31
0.0
  0
LINE
  5
1B3
330
1F
100
AcDbEntity
  8
0
  6
Continuous
 62
     7
100
AcDbLine
 10
435.733
 20
54.6
 30
0.0
 11
436.3580312339999
 21
74.59999999999999
 31
0.0
  0
LINE
  5
1B4
330
1F
100
AcDbEntity
  8
0
  6
Continuous
 62
     7
100
AcDbLine
 10
459.227968766
 20
74.59999999999999
 30
0.0
 11
465.793
 21
87.59999999999999
 31
0.0
  0
LINE
  5
1B5
330
1F
100
AcDbEntity
  8
0
  6
Continuous
 62
     7
100
AcDbLine
 10
436.3580312339999
 20
74.59999999999999
 30
0.0
 11
429.793
 21
87.59999999999999
 31
0.0
  0
LINE
  5
1B6
330
1F
100
AcDbEntity
  8
0
  6
Continuous
 62
     7
100
AcDbLine
 10
479.793
 20
102.6
 30
0.0
 11
479.793
 21
82.59999999999999
 31
0.0
  0
LINE
  5
1B7
330
1F
100
AcDbEntity
  8
0
  6
Continuous
 62
     7
100
AcDbLine
 10
415.793
 20
82.59999999999999
 30
0.0
 11
415.793
 21
102.6
 31
0.0
  0
LINE
  5
1B8
330
1F
100
AcDbEntity
  8
0
  6
Continuous
 62
     7
100
AcDbLine
 10
479.793
 20
82.59999999999999
 30
0.0
 11
472.7929999999999
 21
74.59999999999999
 31
0.0
  0
LINE
  5
1B9
330
1F
100
AcDbEntity
  8
0
  6
Continuous
 62
     7
100
AcDbLine
 10
422.7929999999999
 20
74.59999999999999
 30
0.0
 11
415.793
 21
82.59999999999999
 31
0.0
  0
LINE
  5
1BA
330
1F
100
AcDbEntity
  8
0
  6
Continuous
 62
     7
100
AcDbLine
 10
472.7929999999999
 20
90.6
 30
0.0
 11
472.7929999999999
 21
102.6
 31
0.0
  0
LINE
  5
1BB
330
1F
100
AcDbEntity
  8
0
  6
Continuous
 62
     7
100
AcDbLine
 10
473.793
 20
87.59999999999999
 30
0.0
 11
473.793
 21
90.6
 31
0.0
  0
LINE
  5
1BC
330
1F
100
AcDbEntity
  8
0
  6
Continuous
 62
     7
100
AcDbLine
 10
422.7929999999999
 20
90.6
 30
0.0
 11
422.7929999999999
 21
102.6
 31
0.0
  0
LINE
  5
1BD
330
1F
100
AcDbEntity
  8
0
  6
Continuous
 62
     7
100
AcDbLine
 10
421.7929999999999
 20
90.6
 30
0.0
 11
421.7929999999999
 21
87.59999999999999
 31
0.0
  0
LINE
  5
1BE
330
1F
100
AcDbEntity
  8
0
  6
Continuous
 62
     7
100
AcDbLine
 10
421.7929999999999
 20
87.59999999999999
 30
0.0
 11
473.793
 21
87.59999999999999
 31
0.0
  0
LINE
  5
1BF
330
1F
100
AcDbEntity
  8
0
  6
Continuous
 62
     7
100
AcDbLine
 10
476.7929999999999
 20
266.6
 30
0.0
 11
482.793
 21
266.6
 31
0.0
  0
LINE
  5
1C0
330
1F
100
AcDbEntity
  8
0
  6
Continuous
 62
     7
100
AcDbLine
 10
412.793
 20
266.6
 30
0.0
 11
418.7929999999999
 21
266.6
 31
0.0
  0
LINE
  5
1C1
330
1F
100
AcDbEntity
  8
0
  6
Continuous
 62
     7
100
AcDbLine
 10
422.7929999999999
 20
102.6
 30
0.0
 11
415.793
 21
102.6
 31
0.0
  0
LINE
  5
1C2
330
1F
100
AcDbEntity
  8
0
  6
Continuous
 62
     7
100
AcDbLine
 10
479.793
 20
102.6
 30
0.0
 11
472.7929999999999
 21
102.6
 31
0.0
  0
ARC
  5
1C3
330
1F
100
AcDbEntity
  8
0
  6
Continuous
 62
     7
100
AcDbCircle
 10
447.7929999999999
 20
428.243
 30
0.0
 40
35.0
100
AcDbArc
 50
0.0
 51
180.0
  0
ARC
  5
1C4
330
1F
100
AcDbEntity
  8
0
  6
Continuous
 62
     7
100
AcDbCircle
 10
447.7929999999999
 20
428.243
 30
0.0
 40
25.0
100
AcDbArc
 50
0.0
 51
180.0
  0
ARC
  5
1C5
330
1F
100
AcDbEntity
  8
0
  6
Continuous
 62
     7
100
AcDbCircle
 10
447.7929999999999
 20
428.243
 30
0.0
 40
12.06
100
AcDbArc
 50
0.0
 51
180.0
  0
LINE
  5
1C6
330
1F
100
AcDbEntity
  8
0
  6
Continuous
 62
     7
100
AcDbLine
 10
447.7929999999999
 20
453.646411844
 30
0.0
 11
425.7929999999999
 21
440.9447059219999
 31
0.0
  0
LINE
  5
1C7
330
1F
100
AcDbEntity
  8
0
  6
Continuous
 62
     7
100
AcDbLine
 10
469.793
 20
440.9447059219999
 30
0.0
 11
447.7929999999999
 21
453.646411844
 31
0.0
  0
LINE
  5
1C8
330
1F
100
AcDbEntity
  8
0
  6
Continuous
 62
     7
100
AcDbLine
 10
425.7929999999999
 20
440.9447059219999
 30
0.0
 11
425.7929999999999
 21
428.243
 31
0.0
  0
LINE
  5
1C9
330
1F
100
AcDbEntity
  8
0
  6
Continuous
 62
     7
100
AcDbLine
 10
469.793
 20
428.243
 30
0.0
 11
469.793
 21
440.9447059219999
 31
0.0
  0
ARC
  5
1CA
330
1F
100
AcDbEntity
  8
0
  6
Continuous
 62
     7
100
AcDbCircle
 10
447.7929999999999
 20
428.243
 30
0.0
 40
22.0
100
AcDbArc
 50
0.0
 51
180.0
  0
ARC
  5
1CB
330
1F
100
AcDbEntity
  8
0
  6
Continuous
 62
     7
100
AcDbCircle
 10
447.7929999999999
 20
428.243
 30
0.0
 40
35.0
100
AcDbArc
 50
180.0
 51
0.0
  0
ARC
  5
1CC
330
1F
100
AcDbEntity
  8
0
  6
Continuous
 62
     7
100
AcDbCircle
 10
447.7929999999999
 20
428.243
 30
0.0
 40
25.0
100
AcDbArc
 50
180.0
 51
0.0
  0
ARC
  5
1CD
330
1F
100
AcDbEntity
  8
0
  6
Continuous
 62
     7
100
AcDbCircle
 10
447.7929999999999
 20
428.243
 30
0.0
 40
12.06
100
AcDbArc
 50
180.0
 51
0.0
  0
LINE
  5
1CE
330
1F
100
AcDbEntity
  8
0
  6
Continuous
 62
     7
100
AcDbLine
 10
447.7929999999999
 20
402.8395881559999
 30
0.0
 11
425.7929999999999
 21
415.541294078
 31
0.0
  0
LINE
  5
1CF
330
1F
100
AcDbEntity
  8
0
  6
Continuous
 62
     7
100
AcDbLine
 10
469.793
 20
415.541294078
 30
0.0
 11
447.7929999999999
 21
402.8395881559999
 31
0.0
  0
LINE
  5
1D0
330
1F
100
AcDbEntity
  8
0
  6
Continuous
 62
     7
100
AcDbLine
 10
425.7929999999999
 20
415.541294078
 30
0.0
 11
425.7929999999999
 21
428.243
 31
0.0
  0
LINE
  5
1D1
330
1F
100
AcDbEntity
  8
0
  6
Continuous
 62
     7
100
AcDbLine
 10
469.793
 20
428.243
 30
0.0
 11
469.793
 21
415.541294078
 31
0.0
  0
ARC
  5
1D2
330
1F
100
AcDbEntity
  8
0
  6
Continuous
 62
     7
100
AcDbCircle
 10
447.7929999999999
 20
428.243
 30
0.0
 40
22.0
100
AcDbArc
 50
180.0
 51
0.0
  0
LINE
  5
1D3
330
1F
100
AcDbEntity
  8
0
  6
Continuous
 62
     7
100
AcDbLine
 10
709.153
 20
279.6
 30
0.0
 11
709.153
 21
275.6
 31
0.0
  0
LINE
  5
1D4
330
1F
100
AcDbEntity
  8
0
  6
Continuous
 62
     7
100
AcDbLine
 10
709.153
 20
275.6
 30
0.0
 11
685.153
 21
275.6
 31
0.0
  0
LINE
  5
1D5
330
1F
100
AcDbEntity
  8
0
  6
Continuous
 62
     7
100
AcDbLine
 10
698.653
 20
93.59999999999999
 30
0.0
 11
707.6529999999999
 21
275.6
 31
0.0
  0
LINE
  5
1D6
330
1F
100
AcDbEntity
  8
0
  6
Continuous
 62
     7
100
AcDbLine
 10
685.153
 20
279.6
 30
0.0
 11
714.153
 21
279.6
 31
0.0
  0
LINE
  5
1D7
330
1F
100
AcDbEntity
  8
0
  6
Continuous
 62
     7
100
AcDbLine
 10
714.153
 20
279.6
 30
0.0
 11
715.153
 21
278.6
 31
0.0
  0
LINE
  5
1D8
330
1F
100
AcDbEntity
  8
0
  6
Continuous
 62
     7
100
AcDbLine
 10
715.153
 20
278.6
 30
0.0
 11
715.153
 21
265.6
 31
0.0
  0
LINE
  5
1D9
330
1F
100
AcDbEntity
  8
0
  6
Continuous
 62
     7
100
AcDbLine
 10
714.153
 20
264.6
 30
0.0
 11
715.153
 21
265.6
 31
0.0
  0
LINE
  5
1DA
330
1F
100
AcDbEntity
  8
0
  6
Continuous
 62
     7
100
AcDbLine
 10
714.153
 20
264.6
 30
0.0
 11
713.6069420660001
 21
264.6
 31
0.0
  0
LINE
  5
1DB
330
1F
100
AcDbEntity
  8
0
  6
Continuous
 62
     7
100
AcDbLine
 10
713.6069420660001
 20
264.6
 30
0.0
 11
712.6080527089999
 21
263.647117423
 31
0.0
  0
LINE
  5
1DC
330
1F
100
AcDbEntity
  8
0
  6
Continuous
 62
     7
100
AcDbLine
 10
661.153
 20
279.6
 30
0.0
 11
661.153
 21
275.6
 31
0.0
  0
LINE
  5
1DD
330
1F
100
AcDbEntity
  8
0
  6
Continuous
 62
     7
100
AcDbLine
 10
661.153
 20
275.6
 30
0.0
 11
685.153
 21
275.6
 31
0.0
  0
LINE
  5
1DE
330
1F
100
AcDbEntity
  8
0
  6
Continuous
 62
     7
100
AcDbLine
 10
671.653
 20
93.59999999999999
 30
0.0
 11
662.653
 21
275.6
 31
0.0
  0
LINE
  5
1DF
330
1F
100
AcDbEntity
  8
0
  6
Continuous
 62
     7
100
AcDbLine
 10
685.153
 20
279.6
 30
0.0
 11
656.153
 21
279.6
 31
0.0
  0
LINE
  5
1E0
330
1F
100
AcDbEntity
  8
0
  6
Continuous
 62
     7
100
AcDbLine
 10
656.153
 20
279.6
 30
0.0
 11
655.153
 21
278.6
 31
0.0
  0
LINE
  5
1E1
330
1F
100
AcDbEntity
  8
0
  6
Continuous
 62
     7
100
AcDbLine
 10
655.153
 20
278.6
 30
0.0
 11
655.153
 21
265.6
 31
0.0
  0
LINE
  5
1E2
330
1F
100
AcDbEntity
  8
0
  6
Continuous
 62
     7
100
AcDbLine
 10
656.153
 20
264.6
 30
0.0
 11
655.153
 21
265.6
 31
0.0
  0
LINE
  5
1E3
330
1F
100
AcDbEntity
  8
0
  6
Continuous
 62
     7
100
AcDbLine
 10
656.153
 20
264.6
 30
0.0
 11
656.699057934
 21
264.6
 31
0.0
  0
LINE
  5
1E4
330
1F
100
AcDbEntity
  8
0
  6
Continuous
 62
     7
100
AcDbLine
 10
656.699057934
 20
264.6
 30
0.0
 11
657.6979472909999
 21
263.647117423
 31
0.0
  0
LINE
  5
1E5
330
1F
100
AcDbEntity
  8
0
  6
Continuous
 62
     7
100
AcDbLine
 10
705.2046148510001
 20
106.694234845
 30
0.0
 11
712.6080527089999
 21
263.647117423
 31
0.0
  0
LINE
  5
1E6
330
1F
100
AcDbEntity
  8
0
  6
Continuous
 62
     7
100
AcDbLine
 10
665.1013851490001
 20
106.694234845
 30
0.0
 11
657.6979472909999
 21
263.647117423
 31
0.0
  0
LINE
  5
1E7
330
1F
100
AcDbEntity
  8
0
  6
Continuous
 62
     7
100
AcDbLine
 10
685.153
 20
89.59999999999999
 30
0.0
 11
705.153
 21
89.59999999999999
 31
0.0
  0
LINE
  5
1E8
330
1F
100
AcDbEntity
  8
0
  6
Continuous
 62
     7
100
AcDbLine
 10
705.153
 20
89.59999999999999
 30
0.0
 11
705.153
 21
93.59999999999999
 31
0.0
  0
LINE
  5
1E9
330
1F
100
AcDbEntity
  8
0
  6
Continuous
 62
     7
100
AcDbLine
 10
705.153
 20
93.59999999999999
 30
0.0
 11
685.153
 21
93.59999999999999
 31
0.0
  0
LINE
  5
1EA
330
1F
100
AcDbEntity
  8
0
  6
Continuous
 62
     7
100
AcDbLine
 10
685.153
 20
89.59999999999999
 30
0.0
 11
710.153
 21
89.59999999999999
 31
0.0
  0
LINE
  5
1EB
330
1F
100
AcDbEntity
  8
0
  6
Continuous
 62
     7
100
AcDbLine
 10
710.153
 20
89.59999999999999
 30
0.0
 11
711.153
 21
90.6
 31
0.0
  0
LINE
  5
1EC
330
1F
100
AcDbEntity
  8
0
  6
Continuous
 62
     7
100
AcDbLine
 10
685.153
 20
89.59999999999999
 30
0.0
 11
665.153
 21
89.59999999999999
 31
0.0
  0
LINE
  5
1ED
330
1F
100
AcDbEntity
  8
0
  6
Continuous
 62
     7
100
AcDbLine
 10
665.153
 20
89.59999999999999
 30
0.0
 11
665.153
 21
93.59999999999999
 31
0.0
  0
LINE
  5
1EE
330
1F
100
AcDbEntity
  8
0
  6
Continuous
 62
     7
100
AcDbLine
 10
665.153
 20
93.59999999999999
 30
0.0
 11
685.153
 21
93.59999999999999
 31
0.0
  0
LINE
  5
1EF
330
1F
100
AcDbEntity
  8
0
  6
Continuous
 62
     7
100
AcDbLine
 10
685.153
 20
89.59999999999999
 30
0.0
 11
660.153
 21
89.59999999999999
 31
0.0
  0
LINE
  5
1F0
330
1F
100
AcDbEntity
  8
0
  6
Continuous
 62
     7
100
AcDbLine
 10
660.153
 20
89.59999999999999
 30
0.0
 11
659.153
 21
90.6
 31
0.0
  0
LINE
  5
1F1
330
1F
100
AcDbEntity
  8
0
  6
Continuous
 62
     7
100
AcDbLine
 10
659.153
 20
103.6
 30
0.0
 11
660.153
 21
104.6
 31
0.0
  0
LINE
  5
1F2
330
1F
100
AcDbEntity
  8
0
  6
Continuous
 62
     7
100
AcDbLine
 10
659.153
 20
90.6
 30
0.0
 11
659.153
 21
103.6
 31
0.0
  0
LINE
  5
1F3
330
1F
100
AcDbEntity
  8
0
  6
Continuous
 62
     7
100
AcDbLine
 10
711.153
 20
103.6
 30
0.0
 11
710.153
 21
104.6
 31
0.0
  0
LINE
  5
1F4
330
1F
100
AcDbEntity
  8
0
  6
Continuous
 62
     7
100
AcDbLine
 10
711.153
 20
90.6
 30
0.0
 11
711.153
 21
103.6
 31
0.0
  0
LINE
  5
1F5
330
1F
100
AcDbEntity
  8
0
  6
Continuous
 62
     7
100
AcDbLine
 10
710.153
 20
104.6
 30
0.0
 11
707.202393566
 21
104.6
 31
0.0
  0
ARC
  5
1F6
330
1F
100
AcDbEntity
  8
0
  6
Continuous
 62
     7
100
AcDbCircle
 10
707.202393566
 20
106.6
 30
0.0
 40
2.0
100
AcDbArc
 50
177.299370663
 51
270.0
  0
LINE
  5
1F7
330
1F
100
AcDbEntity
  8
0
  6
Continuous
 62
     7
100
AcDbLine
 10
660.153
 20
104.6
 30
0.0
 11
663.1036064339999
 21
104.6
 31
0.0
  0
ARC
  5
1F8
330
1F
100
AcDbEntity
  8
0
  6
Continuous
 62
     7
100
AcDbCircle
 10
663.1036064339999
 20
106.6
 30
0.0
 40
2.0
100
AcDbArc
 50
270.0
 51
2.700629337
  0
LINE
  5
1F9
330
1F
100
AcDbEntity
  8
0
  6
Continuous
 62
     7
100
AcDbLine
 10
715.153
 20
74.59999999999999
 30
0.0
 11
715.153
 21
59.6
 31
0.0
  0
LINE
  5
1FA
330
1F
100
AcDbEntity
  8
0
  6
Continuous
 62
     7
100
AcDbLine
 10
655.153
 20
59.6
 30
0.0
 11
655.153
 21
74.59999999999999
 31
0.0
  0
LINE
  5
1FB
330
1F
100
AcDbEntity
  8
0
  6
Continuous
 62
     7
100
AcDbLine
 10
711.153
 20
54.6
 30
0.0
 11
659.153
 21
54.6
 31
0.0
  0
LINE
  5
1FC
330
1F
100
AcDbEntity
  8
0
  6
Continuous
 62
     7
100
AcDbLine
 10
715.153
 20
59.6
 30
0.0
 11
711.153
 21
54.6
 31
0.0
  0
LINE
  5
1FD
330
1F
100
AcDbEntity
  8
0
  6
Continuous
 62
     7
100
AcDbLine
 10
659.153
 20
54.6
 30
0.0
 11
655.153
 21
59.6
 31
0.0
  0
LINE
  5
1FE
330
1F
100
AcDbEntity
  8
0
  6
Continuous
 62
     7
100
AcDbLine
 10
700.338216323
 20
54.6
 30
0.0
 11
699.7835696330001
 21
74.59999999999999
 31
0.0
  0
LINE
  5
1FF
330
1F
100
AcDbEntity
  8
0
  6
Continuous
 62
     7
100
AcDbLine
 10
669.9677836769999
 20
54.6
 30
0.0
 11
670.5224303669999
 21
74.59999999999999
 31
0.0
  0
LINE
  5
200
330
1F
100
AcDbEntity
  8
0
  6
Continuous
 62
     7
100
AcDbLine
 10
669.093027486
 20
74.59999999999999
 30
0.0
 11
701.2129725139999
 21
74.59999999999999
 31
0.0
  0
LINE
  5
201
330
1F
100
AcDbEntity
  8
0
  6
Continuous
 62
     7
100
AcDbLine
 10
699.7835696330001
 20
74.59999999999999
 30
0.0
 11
703.153
 21
87.59999999999999
 31
0.0
  0
LINE
  5
202
330
1F
100
AcDbEntity
  8
0
  6
Continuous
 62
     7
100
AcDbLine
 10
670.5224303669999
 20
74.59999999999999
 30
0.0
 11
667.153
 21
87.59999999999999
 31
0.0
  0
LINE
  5
203
330
1F
100
AcDbEntity
  8
0
  6
Continuous
 62
     7
100
AcDbLine
 10
717.153
 20
82.59999999999999
 30
0.0
 11
715.153
 21
74.59999999999999
 31
0.0
  0
LINE
  5
204
330
1F
100
AcDbEntity
  8
0
  6
Continuous
 62
     7
100
AcDbLine
 10
655.153
 20
74.59999999999999
 30
0.0
 11
653.153
 21
82.59999999999999
 31
0.0
  0
LINE
  5
205
330
1F
100
AcDbEntity
  8
0
  6
Continuous
 62
     7
100
AcDbLine
 10
653.153
 20
82.59999999999999
 30
0.0
 11
653.153
 21
102.6
 31
0.0
  0
LINE
  5
206
330
1F
100
AcDbEntity
  8
0
  6
Continuous
 62
     7
100
AcDbLine
 10
717.153
 20
102.6
 30
0.0
 11
717.153
 21
82.59999999999999
 31
0.0
  0
LINE
  5
207
330
1F
100
AcDbEntity
  8
0
  6
Continuous
 62
     7
100
AcDbLine
 10
710.153
 20
90.6
 30
0.0
 11
710.153
 21
102.6
 31
0.0
  0
LINE
  5
208
330
1F
100
AcDbEntity
  8
0
  6
Continuous
 62
     7
100
AcDbLine
 10
711.153
 20
87.59999999999999
 30
0.0
 11
711.153
 21
90.6
 31
0.0
  0
LINE
  5
209
330
1F
100
AcDbEntity
  8
0
  6
Continuous
 62
     7
100
AcDbLine
 10
660.153
 20
90.6
 30
0.0
 11
660.153
 21
102.6
 31
0.0
  0
LINE
  5
20A
330
1F
100
AcDbEntity
  8
0
  6
Continuous
 62
     7
100
AcDbLine
 10
659.153
 20
90.6
 30
0.0
 11
659.153
 21
87.59999999999999
 31
0.0
  0
LINE
  5
20B
330
1F
100
AcDbEntity
  8
0
  6
Continuous
 62
     7
100
AcDbLine
 10
711.153
 20
90.6
 30
0.0
 11
659.153
 21
90.6
 31
0.0
  0
LINE
  5
20C
330
1F
100
AcDbEntity
  8
0
  6
Continuous
 62
     7
100
AcDbLine
 10
659.153
 20
87.59999999999999
 30
0.0
 11
711.153
 21
87.59999999999999
 31
0.0
  0
LINE
  5
20D
330
1F
100
AcDbEntity
  8
0
  6
Continuous
 62
     7
100
AcDbLine
 10
650.153
 20
266.6
 30
0.0
 11
650.153
 21
286.6
 31
0.0
  0
LINE
  5
20E
330
1F
100
AcDbEntity
  8
0
  6
Continuous
 62
     7
100
AcDbLine
 10
720.1529999999999
 20
286.6
 30
0.0
 11
720.1529999999999
 21
266.6
 31
0.0
  0
LINE
  5
20F
330
1F
100
AcDbEntity
  8
0
  6
Continuous
 62
     7
100
AcDbLine
 10
655.153
 20
294.6
 30
0.0
 11
655.153
 21
309.6
 31
0.0
  0
LINE
  5
210
330
1F
100
AcDbEntity
  8
0
  6
Continuous
 62
     7
100
AcDbLine
 10
715.153
 20
309.6
 30
0.0
 11
715.153
 21
294.6
 31
0.0
  0
LINE
  5
211
330
1F
100
AcDbEntity
  8
0
  6
Continuous
 62
     7
100
AcDbLine
 10
659.153
 20
314.6
 30
0.0
 11
711.153
 21
314.6
 31
0.0
  0
LINE
  5
212
330
1F
100
AcDbEntity
  8
0
  6
Continuous
 62
     7
100
AcDbLine
 10
655.153
 20
309.6
 30
0.0
 11
659.153
 21
314.6
 31
0.0
  0
LINE
  5
213
330
1F
100
AcDbEntity
  8
0
  6
Continuous
 62
     7
100
AcDbLine
 10
711.153
 20
314.6
 30
0.0
 11
715.153
 21
309.6
 31
0.0
  0
LINE
  5
214
330
1F
100
AcDbEntity
  8
0
  6
Continuous
 62
     7
100
AcDbLine
 10
650.153
 20
286.6
 30
0.0
 11
655.153
 21
294.6
 31
0.0
  0
LINE
  5
215
330
1F
100
AcDbEntity
  8
0
  6
Continuous
 62
     7
100
AcDbLine
 10
715.153
 20
294.6
 30
0.0
 11
720.1529999999999
 21
286.6
 31
0.0
  0
LINE
  5
216
330
1F
100
AcDbEntity
  8
0
  6
Continuous
 62
     7
100
AcDbLine
 10
669.9677836769999
 20
314.6
 30
0.0
 11
670.5224303669999
 21
294.6
 31
0.0
  0
LINE
  5
217
330
1F
100
AcDbEntity
  8
0
  6
Continuous
 62
     7
100
AcDbLine
 10
700.338216323
 20
314.6
 30
0.0
 11
699.7835696330001
 21
294.6
 31
0.0
  0
LINE
  5
218
330
1F
100
AcDbEntity
  8
0
  6
Continuous
 62
     7
100
AcDbLine
 10
701.2129725139999
 20
294.6
 30
0.0
 11
669.093027486
 21
294.6
 31
0.0
  0
LINE
  5
219
330
1F
100
AcDbEntity
  8
0
  6
Continuous
 62
     7
100
AcDbLine
 10
670.5224303669999
 20
294.6
 30
0.0
 11
664.153
 21
281.6
 31
0.0
  0
LINE
  5
21A
330
1F
100
AcDbEntity
  8
0
  6
Continuous
 62
     7
100
AcDbLine
 10
699.7835696330001
 20
294.6
 30
0.0
 11
706.153
 21
281.6
 31
0.0
  0
LINE
  5
21B
330
1F
100
AcDbEntity
  8
0
  6
Continuous
 62
     7
100
AcDbLine
 10
715.153
 20
278.6
 30
0.0
 11
715.153
 21
281.6
 31
0.0
  0
LINE
  5
21C
330
1F
100
AcDbEntity
  8
0
  6
Continuous
 62
     7
100
AcDbLine
 10
714.153
 20
278.6
 30
0.0
 11
714.153
 21
266.6
 31
0.0
  0
LINE
  5
21D
330
1F
100
AcDbEntity
  8
0
  6
Continuous
 62
     7
100
AcDbLine
 10
655.153
 20
281.6
 30
0.0
 11
655.153
 21
278.6
 31
0.0
  0
LINE
  5
21E
330
1F
100
AcDbEntity
  8
0
  6
Continuous
 62
     7
100
AcDbLine
 10
656.153
 20
278.6
 30
0.0
 11
656.153
 21
266.6
 31
0.0
  0
LINE
  5
21F
330
1F
100
AcDbEntity
  8
0
  6
Continuous
 62
     7
100
AcDbLine
 10
655.153
 20
278.6
 30
0.0
 11
715.153
 21
278.6
 31
0.0
  0
LINE
  5
220
330
1F
100
AcDbEntity
  8
0
  6
Continuous
 62
     7
100
AcDbLine
 10
715.153
 20
281.6
 30
0.0
 11
655.153
 21
281.6
 31
0.0
  0
LINE
  5
221
330
1F
100
AcDbEntity
  8
0
  6
Continuous
 62
     7
100
AcDbLine
 10
660.153
 20
102.6
 30
0.0
 11
653.153
 21
102.6
 31
0.0
  0
LINE
  5
222
330
1F
100
AcDbEntity
  8
0
  6
Continuous
 62
     7
100
AcDbLine
 10
717.153
 20
102.6
 30
0.0
 11
710.153
 21
102.6
 31
0.0
  0
LINE
  5
223
330
1F
100
AcDbEntity
  8
0
  6
Continuous
 62
     7
100
AcDbLine
 10
714.153
 20
266.6
 30
0.0
 11
720.1529999999999
 21
266.6
 31
0.0
  0
LINE
  5
224
330
1F
100
AcDbEntity
  8
0
  6
Continuous
 62
     7
100
AcDbLine
 10
650.153
 20
266.6
 30
0.0
 11
656.153
 21
266.6
 31
0.0
  0
LINE
  5
225
330
1F
100
AcDbEntity
  8
0
  6
Continuous
 62
     7
100
AcDbLine
 10
705.053
 20
91.09999999999999
 30
0.0
 11
705.053
 21
93.59999999999999
 31
0.0
  0
LINE
  5
226
330
1F
100
AcDbEntity
  8
0
  6
Continuous
 62
     7
100
AcDbLine
 10
705.053
 20
93.59999999999999
 30
0.0
 11
665.253
 21
93.59999999999999
 31
0.0
  0
LINE
  5
227
330
1F
100
AcDbEntity
  8
0
  6
Continuous
 62
     7
100
AcDbLine
 10
665.253
 20
93.59999999999999
 30
0.0
 11
665.253
 21
91.09999999999999
 31
0.0
  0
LINE
  5
228
330
1F
100
AcDbEntity
  8
0
  6
Continuous
 62
     7
100
AcDbLine
 10
665.253
 20
91.09999999999999
 30
0.0
 11
705.053
 21
91.09999999999999
 31
0.0
  0
LINE
  5
229
330
1F
100
AcDbEntity
  8
0
  6
Continuous
 62
     7
100
AcDbLine
 10
689.153
 20
91.09999999999999
 30
0.0
 11
689.153
 21
93.59999999999999
 31
0.0
  0
LINE
  5
22A
330
1F
100
AcDbEntity
  8
0
  6
Continuous
 62
     7
100
AcDbLine
 10
681.153
 20
91.09999999999999
 30
0.0
 11
681.153
 21
93.59999999999999
 31
0.0
  0
LINE
  5
22B
330
1F
100
AcDbEntity
  8
0
  6
Continuous
 62
     7
100
AcDbLine
 10
669.153
 20
91.09999999999999
 30
0.0
 11
669.153
 21
93.59999999999999
 31
0.0
  0
LINE
  5
22C
330
1F
100
AcDbEntity
  8
0
  6
Continuous
 62
     7
100
AcDbLine
 10
701.153
 20
91.09999999999999
 30
0.0
 11
701.153
 21
93.59999999999999
 31
0.0
  0
LINE
  5
22D
330
1F
100
AcDbEntity
  8
0
  6
Continuous
 62
     7
100
AcDbLine
 10
661.253
 20
278.1
 30
0.0
 11
661.253
 21
275.6
 31
0.0
  0
LINE
  5
22E
330
1F
100
AcDbEntity
  8
0
  6
Continuous
 62
     7
100
AcDbLine
 10
664.153
 20
275.6
 30
0.0
 11
664.153
 21
278.1
 31
0.0
  0
LINE
  5
22F
330
1F
100
AcDbEntity
  8
0
  6
Continuous
 62
     7
100
AcDbLine
 10
681.153
 20
275.6
 30
0.0
 11
681.153
 21
278.1
 31
0.0
  0
LINE
  5
230
330
1F
100
AcDbEntity
  8
0
  6
Continuous
 62
     7
100
AcDbLine
 10
683.903
 20
278.1
 30
0.0
 11
683.903
 21
275.6
 31
0.0
  0
LINE
  5
231
330
1F
100
AcDbEntity
  8
0
  6
Continuous
 62
     7
100
AcDbLine
 10
709.053
 20
275.6
 30
0.0
 11
709.053
 21
278.1
 31
0.0
  0
LINE
  5
232
330
1F
100
AcDbEntity
  8
0
  6
Continuous
 62
     7
100
AcDbLine
 10
706.153
 20
278.1
 30
0.0
 11
706.153
 21
275.6
 31
0.0
  0
LINE
  5
233
330
1F
100
AcDbEntity
  8
0
  6
Continuous
 62
     7
100
AcDbLine
 10
689.153
 20
278.1
 30
0.0
 11
689.153
 21
275.6
 31
0.0
  0
LINE
  5
234
330
1F
100
AcDbEntity
  8
0
  6
Continuous
 62
     7
100
AcDbLine
 10
686.403
 20
275.6
 30
0.0
 11
686.403
 21
278.1
 31
0.0
  0
LINE
  5
235
330
1F
100
AcDbEntity
  8
0
  6
Continuous
 62
     7
100
AcDbLine
 10
709.053
 20
278.1
 30
0.0
 11
661.253
 21
278.1
 31
0.0
  0
LINE
  5
236
330
1F
100
AcDbEntity
  8
0
  6
Continuous
 62
     7
100
AcDbLine
 10
661.253
 20
275.6
 30
0.0
 11
709.053
 21
275.6
 31
0.0
  0
LINE
  5
237
330
1F
100
AcDbEntity
  8
0
  6
Continuous
 62
     7
100
AcDbLine
 10
686.403
 20
87.15000000000001
 30
0.0
 11
686.403
 21
283.7
 31
0.0
  0
LINE
  5
238
330
1F
100
AcDbEntity
  8
0
  6
Continuous
 62
     7
100
AcDbLine
 10
683.903
 20
283.7
 30
0.0
 11
683.903
 21
87.15000000000001
 31
0.0
  0
LINE
  5
239
330
1F
100
AcDbEntity
  8
0
  6
Continuous
 62
     7
100
AcDbLine
 10
683.903
 20
87.15000000000001
 30
0.0
 11
686.403
 21
87.15000000000001
 31
0.0
  0
LINE
  5
23A
330
1F
100
AcDbEntity
  8
0
  6
Continuous
 62
     7
100
AcDbLine
 10
686.403
 20
283.7
 30
0.0
 11
683.903
 21
283.7
 31
0.0
  0
LINE
  5
23B
330
1F
100
AcDbEntity
  8
0
  6
Continuous
 62
     7
100
AcDbLine
 10
682.853
 20
278.1
 30
0.0
 11
682.853
 21
280.35
 31
0.0
  0
LINE
  5
23C
330
1F
100
AcDbEntity
  8
0
  6
Continuous
 62
     7
100
AcDbLine
 10
684.003
 20
278.1
 30
0.0
 11
684.003
 21
280.3
 31
0.0
  0
LINE
  5
23D
330
1F
100
AcDbEntity
  8
0
  6
Continuous
 62
     7
100
AcDbLine
 10
686.303
 20
278.1
 30
0.0
 11
686.303
 21
280.3
 31
0.0
  0
LINE
  5
23E
330
1F
100
AcDbEntity
  8
0
  6
Continuous
 62
     7
100
AcDbLine
 10
687.453
 20
278.1
 30
0.0
 11
687.453
 21
280.35
 31
0.0
  0
LINE
  5
23F
330
1F
100
AcDbEntity
  8
0
  6
Continuous
 62
     7
100
AcDbLine
 10
682.853
 20
278.1
 30
0.0
 11
687.453
 21
278.1
 31
0.0
  0
ARC
  5
240
330
1F
100
AcDbEntity
  8
0
  6
Continuous
 62
     7
100
AcDbCircle
 10
685.153
 20
277.1
 30
0.0
 40
3.399999999999999
100
AcDbArc
 50
70.3
 51
109.7
  0
LINE
  5
241
330
1F
100
AcDbEntity
  8
0
  6
Continuous
 62
     7
100
AcDbLine
 10
683.4529999999999
 20
280.5
 30
0.0
 11
686.853
 21
280.5
 31
0.0
  0
ARC
  5
242
330
1F
100
AcDbEntity
  8
0
  6
Continuous
 62
     7
100
AcDbCircle
 10
683.403
 20
279.3
 30
0.0
 40
1.199999999999999
100
AcDbArc
 50
60.7
 51
117.6
  0
ARC
  5
243
330
1F
100
AcDbEntity
  8
0
  6
Continuous
 62
     7
100
AcDbCircle
 10
686.903
 20
279.3
 30
0.0
 40
1.199999999999999
100
AcDbArc
 50
62.4
 51
119.3
  0
LINE
  5
244
330
1F
100
AcDbEntity
  8
0
  6
Continuous
 62
     7
100
AcDbLine
 10
687.453
 20
91.09999999999999
 30
0.0
 11
687.453
 21
88.84999999999999
 31
0.0
  0
LINE
  5
245
330
1F
100
AcDbEntity
  8
0
  6
Continuous
 62
     7
100
AcDbLine
 10
686.303
 20
91.09999999999999
 30
0.0
 11
686.303
 21
88.9
 31
0.0
  0
LINE
  5
246
330
1F
100
AcDbEntity
  8
0
  6
Continuous
 62
     7
100
AcDbLine
 10
684.003
 20
91.09999999999999
 30
0.0
 11
684.003
 21
88.9
 31
0.0
  0
LINE
  5
247
330
1F
100
AcDbEntity
  8
0
  6
Continuous
 62
     7
100
AcDbLine
 10
682.853
 20
91.09999999999999
 30
0.0
 11
682.853
 21
88.84999999999999
 31
0.0
  0
LINE
  5
248
330
1F
100
AcDbEntity
  8
0
  6
Continuous
 62
     7
100
AcDbLine
 10
687.453
 20
91.09999999999999
 30
0.0
 11
682.853
 21
91.09999999999999
 31
0.0
  0
ARC
  5
249
330
1F
100
AcDbEntity
  8
0
  6
Continuous
 62
     7
100
AcDbCircle
 10
685.153
 20
92.09999999999999
 30
0.0
 40
3.399999999999999
100
AcDbArc
 50
250.3
 51
289.7
  0
LINE
  5
24A
330
1F
100
AcDbEntity
  8
0
  6
Continuous
 62
     7
100
AcDbLine
 10
686.853
 20
88.7
 30
0.0
 11
683.4529999999999
 21
88.7
 31
0.0
  0
ARC
  5
24B
330
1F
100
AcDbEntity
  8
0
  6
Continuous
 62
     7
100
AcDbCircle
 10
686.903
 20
89.9
 30
0.0
 40
1.199999999999999
100
AcDbArc
 50
240.7
 51
297.6
  0
ARC
  5
24C
330
1F
100
AcDbEntity
  8
0
  6
Continuous
 62
     7
100
AcDbCircle
 10
683.403
 20
89.9
 30
0.0
 40
1.199999999999999
100
AcDbArc
 50
242.4
 51
299.3
  0
LINE
  5
24D
330
1F
100
AcDbEntity
  8
0
  6
Continuous
 62
     7
100
AcDbLine
 10
449.0429999999999
 20
183.6
 30
0.0
 11
461.5429999999999
 21
183.6
 31
0.0
  0
LINE
  5
24E
330
1F
100
AcDbEntity
  8
0
  6
Continuous
 62
     7
100
AcDbLine
 10
461.5429999999999
 20
183.6
 30
0.0
 11
461.5429999999999
 21
175.6
 31
0.0
  0
LINE
  5
24F
330
1F
100
AcDbEntity
  8
0
  6
Continuous
 62
     7
100
AcDbLine
 10
461.5429999999999
 20
175.6
 30
0.0
 11
458.543
 21
175.6
 31
0.0
  0
LINE
  5
250
330
1F
100
AcDbEntity
  8
0
  6
Continuous
 62
     7
100
AcDbLine
 10
458.543
 20
175.6
 30
0.0
 11
458.543
 21
160.4
 31
0.0
  0
LINE
  5
251
330
1F
100
AcDbEntity
  8
0
  6
Continuous
 62
     7
100
AcDbLine
 10
458.543
 20
160.4
 30
0.0
 11
451.7929999999999
 21
153.6
 31
0.0
  0
LINE
  5
252
330
1F
100
AcDbEntity
  8
0
  6
Continuous
 62
     7
100
AcDbLine
 10
446.543
 20
183.6
 30
0.0
 11
434.043
 21
183.6
 31
0.0
  0
LINE
  5
253
330
1F
100
AcDbEntity
  8
0
  6
Continuous
 62
     7
100
AcDbLine
 10
434.043
 20
183.6
 30
0.0
 11
434.043
 21
175.6
 31
0.0
  0
LINE
  5
254
330
1F
100
AcDbEntity
  8
0
  6
Continuous
 62
     7
100
AcDbLine
 10
434.043
 20
175.6
 30
0.0
 11
437.0429999999999
 21
175.6
 31
0.0
  0
LINE
  5
255
330
1F
100
AcDbEntity
  8
0
  6
Continuous
 62
     7
100
AcDbLine
 10
437.0429999999999
 20
175.6
 30
0.0
 11
437.0429999999999
 21
160.4
 31
0.0
  0
LINE
  5
256
330
1F
100
AcDbEntity
  8
0
  6
Continuous
 62
     7
100
AcDbLine
 10
437.0429999999999
 20
160.4
 30
0.0
 11
443.793
 21
153.6
 31
0.0
  0
LINE
  5
257
330
1F
100
AcDbEntity
  8
0
  6
Continuous
 62
     7
100
AcDbLine
 10
686.403
 20
183.6
 30
0.0
 11
698.903
 21
183.6
 31
0.0
  0
LINE
  5
258
330
1F
100
AcDbEntity
  8
0
  6
Continuous
 62
     7
100
AcDbLine
 10
698.903
 20
183.6
 30
0.0
 11
698.903
 21
175.6
 31
0.0
  0
LINE
  5
259
330
1F
100
AcDbEntity
  8
0
  6
Continuous
 62
     7
100
AcDbLine
 10
698.903
 20
175.6
 30
0.0
 11
695.903
 21
175.6
 31
0.0
  0
LINE
  5
25A
330
1F
100
AcDbEntity
  8
0
  6
Continuous
 62
     7
100
AcDbLine
 10
695.903
 20
175.6
 30
0.0
 11
695.903
 21
160.4
 31
0.0
  0
LINE
  5
25B
330
1F
100
AcDbEntity
  8
0
  6
Continuous
 62
     7
100
AcDbLine
 10
695.903
 20
160.4
 30
0.0
 11
689.153
 21
153.6
 31
0.0
  0
LINE
  5
25C
330
1F
100
AcDbEntity
  8
0
  6
Continuous
 62
     7
100
AcDbLine
 10
683.903
 20
183.6
 30
0.0
 11
671.403
 21
183.6
 31
0.0
  0
LINE
  5
25D
330
1F
100
AcDbEntity
  8
0
  6
Continuous
 62
     7
100
AcDbLine
 10
671.403
 20
183.6
 30
0.0
 11
671.403
 21
175.6
 31
0.0
  0
LINE
  5
25E
330
1F
100
AcDbEntity
  8
0
  6
Continuous
 62
     7
100
AcDbLine
 10
671.403
 20
175.6
 30
0.0
 11
674.403
 21
175.6
 31
0.0
  0
LINE
  5
25F
330
1F
100
AcDbEntity
  8
0
  6
Continuous
 62
     7
100
AcDbLine
 10
674.403
 20
175.6
 30
0.0
 11
674.403
 21
160.4
 31
0.0
  0
LINE
  5
260
330
1F
100
AcDbEntity
  8
0
  6
Continuous
 62
     7
100
AcDbLine
 10
674.403
 20
160.4
 30
0.0
 11
681.153
 21
153.6
 31
0.0
  0
LINE
  5
261
330
1F
100
AcDbEntity
  8
0
  6
Continuous
 62
     7
100
AcDbLine
 10
686.403
 20
153.6
 30
0.0
 11
689.153
 21
153.6
 31
0.0
  0
LINE
  5
262
330
1F
100
AcDbEntity
  8
0
  6
Continuous
 62
     7
100
AcDbLine
 10
681.153
 20
153.6
 30
0.0
 11
683.903
 21
153.6
 31
0.0
  0
LINE
  5
263
330
1F
100
AcDbEntity
  8
0
  6
Continuous
 62
     7
100
AcDbLine
 10
449.0429999999999
 20
153.6
 30
0.0
 11
451.7929999999999
 21
153.6
 31
0.0
  0
LINE
  5
264
330
1F
100
AcDbEntity
  8
0
  6
Continuous
 62
     7
100
AcDbLine
 10
443.793
 20
153.6
 30
0.0
 11
446.543
 21
153.6
 31
0.0
  0
LINE
  5
265
330
1F
100
AcDbEntity
  8
0
  6
Continuous
 62
     7
100
AcDbLine
 10
476.7929999999999
 20
264.6
 30
0.0
 11
476.7929999999999
 21
279.6
 31
0.0
  0
LINE
  5
266
330
1F
100
AcDbEntity
  8
0
  6
Continuous
 62
     7
100
AcDbLine
 10
418.7929999999999
 20
264.6
 30
0.0
 11
418.7929999999999
 21
279.6
 31
0.0
  0
LINE
  5
267
330
1F
100
AcDbEntity
  8
0
  6
Continuous
 62
     7
100
AcDbLine
 10
422.7929999999999
 20
89.59999999999999
 30
0.0
 11
422.7929999999999
 21
104.6
 31
0.0
  0
LINE
  5
268
330
1F
100
AcDbEntity
  8
0
  6
Continuous
 62
     7
100
AcDbLine
 10
472.7929999999999
 20
89.59999999999999
 30
0.0
 11
472.7929999999999
 21
104.6
 31
0.0
  0
LINE
  5
269
330
1F
100
AcDbEntity
  8
0
  6
Continuous
 62
     7
100
AcDbLine
 10
714.153
 20
264.6
 30
0.0
 11
714.153
 21
279.6
 31
0.0
  0
LINE
  5
26A
330
1F
100
AcDbEntity
  8
0
  6
Continuous
 62
     7
100
AcDbLine
 10
656.153
 20
264.6
 30
0.0
 11
656.153
 21
279.6
 31
0.0
  0
LINE
  5
26B
330
1F
100
AcDbEntity
  8
0
  6
Continuous
 62
     7
100
AcDbLine
 10
660.153
 20
89.59999999999999
 30
0.0
 11
660.153
 21
104.6
 31
0.0
  0
LINE
  5
26C
330
1F
100
AcDbEntity
  8
0
  6
Continuous
 62
     7
100
AcDbLine
 10
710.153
 20
89.59999999999999
 30
0.0
 11
710.153
 21
104.6
 31
0.0
  0
MTEXT
  5
26D
330
1F
100
AcDbEntity
  8
0
  6
Continuous
 62
     7
100
AcDbMText
 10
81.53299999999999
 20
417.666
 30
0.0
 40
10.0
 41
208.0
 71
     7
 72
     1
  1
\W0.800;ＡＤＦ１０１ＤＤＨＯＡＡＡ
  7
KANJI0
 73
     1
 44
1.0
1001
ACAD
1000
MTEXTBEGIN
1070
    73
1070
     1
1070
    44
1040
1.0
1070
    74
1070
     0
1000
MTEXTEND
  0
MTEXT
  5
26F
330
1F
100
AcDbEntity
  8
0
  6
Continuous
 62
     7
100
AcDbMText
 10
334.298216323
 20
513.25
 30
0.0
 40
10.0
 41
208.0
 71
     7
 72
     1
  1
\W0.800;ＡＤＦ１０１ＥＤＨＯＡＡＡ
  7
KANJI0
 73
     1
 44
1.0
1001
ACAD
1000
MTEXTBEGIN
1070
    73
1070
     1
1070
    44
1040
1.0
1070
    74
1070
     0
1000
MTEXTEND
  0
MTEXT
  5
270
330
1F
100
AcDbEntity
  8
0
  6
Continuous
 62
     7
100
AcDbMText
 10
601.028216323
 20
513.26
 30
0.0
 40
10.0
 41
208.0
 71
     7
 72
     1
  1
\W0.800;ＡＤＦ１０１ＦＤＨＯＡＡＡ
  7
KANJI0
 73
     1
 44
1.0
1001
ACAD
1000
MTEXTBEGIN
1070
    73
1070
     1
1070
    44
1040
1.0
1070
    74
1070
     0
1000
MTEXTEND
  0
LINE
  5
272
330
1F
100
AcDbEntity
  8
0
  6
LTYPE1
 62
     7
100
AcDbLine
 10
185.153
 20
78.0
 30
0.0
 11
185.153
 21
79.0
 31
0.0
  0
LINE
  5
273
330
1F
100
AcDbEntity
  8
0
  6
LTYPE1
 62
     7
100
AcDbLine
 10
186.653
 20
78.0
 30
0.0
 11
186.653
 21
79.0
 31
0.0
  0
LINE
  5
274
330
1F
100
AcDbEntity
  8
0
  6
LTYPE1
 62
     7
100
AcDbLine
 10
186.653
 20
252.2
 30
0.0
 11
186.653
 21
248.2
 31
0.0
  0
LINE
  5
275
330
1F
100
AcDbEntity
  8
0
  6
LTYPE1
 62
     7
100
AcDbLine
 10
185.153
 20
252.2
 30
0.0
 11
185.153
 21
248.2
 31
0.0
  0
LINE
  5
276
330
1F
100
AcDbEntity
  8
0
  6
LTYPE1
 62
     7
100
AcDbLine
 10
175.433
 20
272.6
 30
0.0
 11
175.964276549
 21
250.6
 31
0.0
  0
LINE
  5
277
330
1F
100
AcDbEntity
  8
0
  6
LTYPE1
 62
     7
100
AcDbLine
 10
196.373
 20
272.6
 30
0.0
 11
195.839535842
 21
250.53
 31
0.0
  0
LINE
  5
278
330
1F
100
AcDbEntity
  8
0
  6
LTYPE1
 62
     7
100
AcDbLine
 10
166.903
 20
247.6
 30
0.0
 11
166.903
 21
237.6
 31
0.0
  0
LINE
  5
279
330
1F
100
AcDbEntity
  8
0
  6
LTYPE1
 62
     7
100
AcDbLine
 10
204.903
 20
247.6
 30
0.0
 11
204.903
 21
237.6
 31
0.0
  0
LINE
  5
27A
330
1F
100
AcDbEntity
  8
0
  6
LTYPE1
 62
     7
100
AcDbLine
 10
196.373
 20
54.6
 30
0.0
 11
195.841723451
 21
76.6
 31
0.0
  0
LINE
  5
27B
330
1F
100
AcDbEntity
  8
0
  6
LTYPE1
 62
     7
100
AcDbLine
 10
175.433
 20
54.6
 30
0.0
 11
175.966464158
 21
76.67
 31
0.0
  0
LINE
  5
27C
330
1F
100
AcDbEntity
  8
0
  6
LTYPE1
 62
     7
100
AcDbLine
 10
204.903
 20
79.59999999999999
 30
0.0
 11
204.903
 21
89.59999999999999
 31
0.0
  0
LINE
  5
27D
330
1F
100
AcDbEntity
  8
0
  6
LTYPE1
 62
     7
100
AcDbLine
 10
166.903
 20
79.59999999999999
 30
0.0
 11
166.903
 21
89.59999999999999
 31
0.0
  0
LINE
  5
27E
330
1F
100
AcDbEntity
  8
0
  6
LTYPE1
 62
     7
100
AcDbLine
 10
185.903
 20
272.6
 30
0.0
 11
185.903
 21
54.6
 31
0.0
  0
CIRCLE
  5
27F
330
1F
100
AcDbEntity
  8
0
  6
LTYPE1
 62
     7
100
AcDbCircle
 10
185.903
 20
347.744
 30
0.0
 40
9.938723450999999
  0
LINE
  5
280
330
1F
100
AcDbEntity
  8
0
  6
LTYPE1
 62
     7
100
AcDbLine
 10
208.07610878
 20
347.744
 30
0.0
 11
163.72989122
 21
347.744
 31
0.0
  0
LINE
  5
281
330
1F
100
AcDbEntity
  8
0
  6
LTYPE1
 62
     7
100
AcDbLine
 10
185.903
 20
369.91710878
 30
0.0
 11
185.903
 21
325.57089122
 31
0.0
  0
ARC
  5
282
330
1F
100
AcDbEntity
  8
0
  6
LTYPE1
 62
     7
100
AcDbCircle
 10
692.623
 20
431.243
 30
0.0
 40
16.61
100
AcDbArc
 50
0.0
 51
180.0
  0
ARC
  5
283
330
1F
100
AcDbEntity
  8
0
  6
LTYPE1
 62
     7
100
AcDbCircle
 10
692.623
 20
431.243
 30
0.0
 40
16.61
100
AcDbArc
 50
180.0
 51
0.0
  0
LINE
  5
284
330
1F
100
AcDbEntity
  8
0
  6
LTYPE1
 62
     7
100
AcDbLine
 10
727.623
 20
431.243
 30
0.0
 11
657.623
 21
431.243
 31
0.0
  0
LINE
  5
285
330
1F
100
AcDbEntity
  8
0
  6
LTYPE1
 62
     7
100
AcDbLine
 10
692.623
 20
465.943
 30
0.0
 11
692.623
 21
396.543
 31
0.0
  0
LINE
  5
286
330
1F
100
AcDbEntity
  8
0
  6
LTYPE1
 62
     7
100
AcDbLine
 10
448.793
 20
93.15000000000001
 30
0.0
 11
448.793
 21
87.15000000000001
 31
0.0
  0
LINE
  5
287
330
1F
100
AcDbEntity
  8
0
  6
LTYPE1
 62
     7
100
AcDbLine
 10
449.0429999999999
 20
277.25
 30
0.0
 11
448.793
 21
277.7
 31
0.0
  0
LINE
  5
288
330
1F
100
AcDbEntity
  8
0
  6
LTYPE1
 62
     7
100
AcDbLine
 10
448.793
 20
283.7
 30
0.0
 11
448.793
 21
277.7
 31
0.0
  0
LINE
  5
289
330
1F
100
AcDbEntity
  8
0
  6
LTYPE1
 62
     7
100
AcDbLine
 10
446.7929999999999
 20
87.15000000000001
 30
0.0
 11
446.7929999999999
 21
93.15000000000001
 31
0.0
  0
LINE
  5
28A
330
1F
100
AcDbEntity
  8
0
  6
LTYPE1
 62
     7
100
AcDbLine
 10
446.543
 20
277.25
 30
0.0
 11
446.7929999999999
 21
277.7
 31
0.0
  0
LINE
  5
28B
330
1F
100
AcDbEntity
  8
0
  6
LTYPE1
 62
     7
100
AcDbLine
 10
446.7929999999999
 20
277.7
 30
0.0
 11
446.7929999999999
 21
283.7
 31
0.0
  0
LINE
  5
28C
330
1F
100
AcDbEntity
  8
0
  6
LTYPE1
 62
     7
100
AcDbLine
 10
434.573
 20
314.6
 30
0.0
 11
435.198031234
 21
294.6
 31
0.0
  0
LINE
  5
28D
330
1F
100
AcDbEntity
  8
0
  6
LTYPE1
 62
     7
100
AcDbLine
 10
461.013
 20
314.6
 30
0.0
 11
460.387968766
 21
294.6
 31
0.0
  0
LINE
  5
28E
330
1F
100
AcDbEntity
  8
0
  6
LTYPE1
 62
     7
100
AcDbLine
 10
477.793
 20
278.6
 30
0.0
 11
477.793
 21
266.6
 31
0.0
  0
LINE
  5
28F
330
1F
100
AcDbEntity
  8
0
  6
LTYPE1
 62
     7
100
AcDbLine
 10
417.7929999999999
 20
278.6
 30
0.0
 11
417.7929999999999
 21
266.6
 31
0.0
  0
LINE
  5
290
330
1F
100
AcDbEntity
  8
0
  6
LTYPE1
 62
     7
100
AcDbLine
 10
461.013
 20
54.6
 30
0.0
 11
460.387968766
 21
74.59999999999999
 31
0.0
  0
LINE
  5
291
330
1F
100
AcDbEntity
  8
0
  6
LTYPE1
 62
     7
100
AcDbLine
 10
434.573
 20
54.6
 30
0.0
 11
435.198031234
 21
74.59999999999999
 31
0.0
  0
LINE
  5
292
330
1F
100
AcDbEntity
  8
0
  6
LTYPE1
 62
     7
100
AcDbLine
 10
473.793
 20
90.6
 30
0.0
 11
473.793
 21
102.6
 31
0.0
  0
LINE
  5
293
330
1F
100
AcDbEntity
  8
0
  6
LTYPE1
 62
     7
100
AcDbLine
 10
421.7929999999999
 20
90.6
 30
0.0
 11
421.7929999999999
 21
102.6
 31
0.0
  0
LINE
  5
294
330
1F
100
AcDbEntity
  8
0
  6
LTYPE1
 62
     7
100
AcDbLine
 10
447.7929999999999
 20
314.6
 30
0.0
 11
447.7929999999999
 21
54.6
 31
0.0
  0
ARC
  5
295
330
1F
100
AcDbEntity
  8
0
  6
LTYPE1
 62
     7
100
AcDbCircle
 10
447.7929999999999
 20
428.243
 30
0.0
 40
13.22
100
AcDbArc
 50
0.0
 51
180.0
  0
ARC
  5
296
330
1F
100
AcDbEntity
  8
0
  6
LTYPE1
 62
     7
100
AcDbCircle
 10
447.7929999999999
 20
428.243
 30
0.0
 40
13.22
100
AcDbArc
 50
180.0
 51
0.0
  0
LINE
  5
297
330
1F
100
AcDbEntity
  8
0
  6
LTYPE1
 62
     7
100
AcDbLine
 10
482.793
 20
428.243
 30
0.0
 11
412.793
 21
428.243
 31
0.0
  0
LINE
  5
298
330
1F
100
AcDbEntity
  8
0
  6
LTYPE1
 62
     7
100
AcDbLine
 10
447.7929999999999
 20
463.343
 30
0.0
 11
447.7929999999999
 21
393.143
 31
0.0
  0
LINE
  5
299
330
1F
100
AcDbEntity
  8
0
  6
LTYPE1
 62
     7
100
AcDbLine
 10
685.153
 20
279.6
 30
0.0
 11
685.153
 21
89.59999999999999
 31
0.0
  0
LINE
  5
29A
330
1F
100
AcDbEntity
  8
0
  6
LTYPE1
 62
     7
100
AcDbLine
 10
701.763
 20
54.6
 30
0.0
 11
701.2129725139999
 21
74.59999999999999
 31
0.0
  0
LINE
  5
29B
330
1F
100
AcDbEntity
  8
0
  6
LTYPE1
 62
     7
100
AcDbLine
 10
668.543
 20
54.6
 30
0.0
 11
669.093027486
 21
74.59999999999999
 31
0.0
  0
LINE
  5
29C
330
1F
100
AcDbEntity
  8
0
  6
LTYPE1
 62
     7
100
AcDbLine
 10
711.153
 20
90.6
 30
0.0
 11
711.153
 21
102.6
 31
0.0
  0
LINE
  5
29D
330
1F
100
AcDbEntity
  8
0
  6
LTYPE1
 62
     7
100
AcDbLine
 10
659.153
 20
90.6
 30
0.0
 11
659.153
 21
102.6
 31
0.0
  0
LINE
  5
29E
330
1F
100
AcDbEntity
  8
0
  6
LTYPE1
 62
     7
100
AcDbLine
 10
685.153
 20
54.6
 30
0.0
 11
685.153
 21
102.6
 31
0.0
  0
LINE
  5
29F
330
1F
100
AcDbEntity
  8
0
  6
LTYPE1
 62
     7
100
AcDbLine
 10
668.543
 20
314.6
 30
0.0
 11
669.093027486
 21
294.6
 31
0.0
  0
LINE
  5
2A0
330
1F
100
AcDbEntity
  8
0
  6
LTYPE1
 62
     7
100
AcDbLine
 10
701.763
 20
314.6
 30
0.0
 11
701.2129725139999
 21
294.6
 31
0.0
  0
LINE
  5
2A1
330
1F
100
AcDbEntity
  8
0
  6
LTYPE1
 62
     7
100
AcDbLine
 10
715.153
 20
278.6
 30
0.0
 11
715.153
 21
266.6
 31
0.0
  0
LINE
  5
2A2
330
1F
100
AcDbEntity
  8
0
  6
LTYPE1
 62
     7
100
AcDbLine
 10
655.153
 20
278.6
 30
0.0
 11
655.153
 21
266.6
 31
0.0
  0
LINE
  5
2A3
330
1F
100
AcDbEntity
  8
0
  6
LTYPE1
 62
     7
100
AcDbLine
 10
685.153
 20
314.6
 30
0.0
 11
685.153
 21
266.6
 31
0.0
  0
LINE
  5
2A4
330
1F
100
AcDbEntity
  8
0
  6
LTYPE1
 62
     7
100
AcDbLine
 10
686.153
 20
93.15000000000001
 30
0.0
 11
686.153
 21
87.15000000000001
 31
0.0
  0
LINE
  5
2A5
330
1F
100
AcDbEntity
  8
0
  6
LTYPE1
 62
     7
100
AcDbLine
 10
686.403
 20
277.25
 30
0.0
 11
686.153
 21
277.7
 31
0.0
  0
LINE
  5
2A6
330
1F
100
AcDbEntity
  8
0
  6
LTYPE1
 62
     7
100
AcDbLine
 10
686.153
 20
283.7
 30
0.0
 11
686.153
 21
277.7
 31
0.0
  0
LINE
  5
2A7
330
1F
100
AcDbEntity
  8
0
  6
LTYPE1
 62
     7
100
AcDbLine
 10
684.153
 20
87.15000000000001
 30
0.0
 11
684.153
 21
93.15000000000001
 31
0.0
  0
LINE
  5
2A8
330
1F
100
AcDbEntity
  8
0
  6
LTYPE1
 62
     7
100
AcDbLine
 10
683.903
 20
277.25
 30
0.0
 11
684.153
 21
277.7
 31
0.0
  0
LINE
  5
2A9
330
1F
100
AcDbEntity
  8
0
  6
LTYPE1
 62
     7
100
AcDbLine
 10
684.153
 20
277.7
 30
0.0
 11
684.153
 21
283.7
 31
0.0
  0
ENDSEC
  0
SECTION
  2
OBJECTS
  0
DICTIONARY
  5
C
330
0
100
AcDbDictionary
281
     1
  3
ACAD_COLOR
350
2C1
  3
ACAD_GROUP
350
D
  3
ACAD_LAYOUT
350
1A
  3
ACAD_MATERIAL
350
2AC
  3
ACAD_MLINESTYLE
350
17
  3
ACAD_PLOTSETTINGS
350
19
  3
ACAD_PLOTSTYLENAME
350
E
  3
ACAD_TABLESTYLE
350
2C2
  3
ACAD_VISUALSTYLE
350
2B0
  3
AcDbVariableDictionary
350
2CC
  3
DWGPROPS
350
2D1
  0
DICTIONARY
  5
2C7
330
2
100
AcDbDictionary
280
     1
281
     1
  3
ACAD_LAYERFILTERS
360
2CB
  3
ACLYDICTIONARY
360
2CA
  0
DICTIONARY
  5
2C1
102
{ACAD_REACTORS
330
C
102
}
330
C
100
AcDbDictionary
281
     1
  0
DICTIONARY
  5
D
102
{ACAD_REACTORS
330
C
102
}
330
C
100
AcDbDictionary
281
     1
  0
DICTIONARY
  5
1A
102
{ACAD_REACTORS
330
C
102
}
330
C
100
AcDbDictionary
281
     1
  3
Model
350
22
  3
ﾚｲｱｳﾄ1
350
1E
  3
ﾚｲｱｳﾄ2
350
26
  0
DICTIONARY
  5
2AC
102
{ACAD_REACTORS
330
C
102
}
330
C
100
AcDbDictionary
281
     1
  3
ByBlock
350
2AE
  3
ByLayer
350
2AD
  3
Global
350
2AF
  0
DICTIONARY
  5
17
102
{ACAD_REACTORS
330
C
102
}
330
C
100
AcDbDictionary
281
     1
  3
Standard
350
18
  0
DICTIONARY
  5
19
102
{ACAD_REACTORS
330
C
102
}
330
C
100
AcDbDictionary
281
     1
  0
ACDBDICTIONARYWDFLT
  5
E
330
C
100
AcDbDictionary
281
     0
  3
Normal
350
F
100
AcDbDictionaryWithDefault
340
F
  0
DICTIONARY
  5
2C2
102
{ACAD_REACTORS
330
C
102
}
330
C
100
AcDbDictionary
281
     1
  3
Standard
350
2C3
  0
DICTIONARY
  5
2B0
102
{ACAD_REACTORS
330
C
102
}
330
C
100
AcDbDictionary
281
     1
  3
2dWireframe
350
2B6
  3
3D Hidden
350
2B8
  3
3dWireframe
350
2B7
  3
Basic
350
2B5
  3
Brighten
350
2BC
  3
ColorChange
350
2C0
  3
Conceptual
350
2B9
  3
Dim
350
2BB
  3
Facepattern
350
2BF
  3
Flat
350
2B1
  3
FlatWithEdges
350
2B2
  3
Gouraud
350
2B3
  3
GouraudWithEdges
350
2B4
  3
Linepattern
350
2BE
  3
Realistic
350
2BA
  3
Thicken
350
2BD
  0
DICTIONARY
  5
2CC
102
{ACAD_REACTORS
330
C
102
}
330
C
100
AcDbDictionary
281
     1
  3
CTABLESTYLE
350
2CD
  3
DIMASSOC
350
2D0
  3
INDEXCTL
350
2CF
  3
SORTENTS
350
2CE
  0
XRECORD
  5
2D1
102
{ACAD_REACTORS
330
C
102
}
330
C
100
AcDbXrecord
280
     1
  1
DWGPROPS COOKIE
  2

  3

  4

  6

  7

  8
gijutsu-sakata
  9

300
=
301
=
302
=
303
=
304
=
305
=
306
=
307
=
308
=
309
=
 40
0.0004611342592593
 41
2457476.588275359
 42
2457476.588735093
  1

 90
        0
  0
DICTIONARY
  5
2CB
102
{ACAD_REACTORS
330
2C7
102
}
330
2C7
100
AcDbDictionary
281
     1
  0
DICTIONARY
  5
2CA
102
{ACAD_REACTORS
330
2C7
102
}
330
2C7
100
AcDbDictionary
281
     1
1001
ACAD
1000
<All
  0
LAYOUT
  5
22
102
{ACAD_XDICTIONARY
360
2D4
102
}
102
{ACAD_REACTORS
330
1A
102
}
330
1A
100
AcDbPlotSettings
  1

  2

  4

  6

 40
0.0
 41
0.0
 42
0.0
 43
0.0
 44
0.0
 45
0.0
 46
0.0
 47
0.0
 48
0.0
 49
0.0
140
0.0
141
0.0
142
1.0
143
1.0
 70
  1712
 72
     0
 73
     0
 74
     0
  7

 75
     0
147
1.0
148
0.0
149
0.0
100
AcDbLayout
  1
Model
 70
     1
 71
     0
 10
0.0
 20
0.0
 11
0.0
 21
0.0
 12
0.0
 22
0.0
 32
0.0
 14
0.0
 24
0.0
 34
0.0
 15
0.0
 25
0.0
 35
0.0
146
0.0
 13
0.0
 23
0.0
 33
0.0
 16
1.0
 26
0.0
 36
0.0
 17
0.0
 27
1.0
 37
0.0
 76
     0
330
1F
331
29
  0
LAYOUT
  5
1E
102
{ACAD_XDICTIONARY
360
2D2
102
}
102
{ACAD_REACTORS
330
1A
102
}
330
1A
100
AcDbPlotSettings
  1

  2

  4

  6

 40
0.0
 41
0.0
 42
0.0
 43
0.0
 44
0.0
 45
0.0
 46
0.0
 47
0.0
 48
0.0
 49
0.0
140
0.0
141
0.0
142
1.0
143
1.0
 70
   688
 72
     0
 73
     0
 74
     5
  7

 75
    16
147
1.0
148
0.0
149
0.0
100
AcDbLayout
  1
ﾚｲｱｳﾄ1
 70
     1
 71
     1
 10
0.0
 20
0.0
 11
0.0
 21
0.0
 12
0.0
 22
0.0
 32
0.0
 14
1.000000000000000E+20
 24
1.000000000000000E+20
 34
1.000000000000000E+20
 15
-1.000000000000000E+20
 25
-1.000000000000000E+20
 35
-1.000000000000000E+20
146
0.0
 13
0.0
 23
0.0
 33
0.0
 16
1.0
 26
0.0
 36
0.0
 17
0.0
 27
1.0
 37
0.0
 76
     0
330
1B
  0
LAYOUT
  5
26
102
{ACAD_XDICTIONARY
360
2D6
102
}
102
{ACAD_REACTORS
330
1A
102
}
330
1A
100
AcDbPlotSettings
  1

  2

  4

  6

 40
0.0
 41
0.0
 42
0.0
 43
0.0
 44
0.0
 45
0.0
 46
0.0
 47
0.0
 48
0.0
 49
0.0
140
0.0
141
0.0
142
1.0
143
1.0
 70
   688
 72
     0
 73
     0
 74
     5
  7

 75
    16
147
1.0
148
0.0
149
0.0
100
AcDbLayout
  1
ﾚｲｱｳﾄ2
 70
     1
 71
     2
 10
0.0
 20
0.0
 11
0.0
 21
0.0
 12
0.0
 22
0.0
 32
0.0
 14
0.0
 24
0.0
 34
0.0
 15
0.0
 25
0.0
 35
0.0
146
0.0
 13
0.0
 23
0.0
 33
0.0
 16
1.0
 26
0.0
 36
0.0
 17
0.0
 27
1.0
 37
0.0
 76
     0
330
23
  0
MATERIAL
  5
2AE
102
{ACAD_XDICTIONARY
360
2DA
102
}
102
{ACAD_REACTORS
330
2AC
102
}
330
2AC
100
AcDbMaterial
  1
ByBlock
  0
MATERIAL
  5
2AD
102
{ACAD_XDICTIONARY
360
2D8
102
}
102
{ACAD_REACTORS
330
2AC
102
}
330
2AC
100
AcDbMaterial
  1
ByLayer
  0
MATERIAL
  5
2AF
102
{ACAD_XDICTIONARY
360
2DC
102
}
102
{ACAD_REACTORS
330
2AC
102
}
330
2AC
100
AcDbMaterial
  1
Global
  0
MLINESTYLE
  5
18
102
{ACAD_REACTORS
330
17
102
}
330
17
100
AcDbMlineStyle
  2
STANDARD
 70
     0
  3

 62
   256
 51
90.0
 52
90.0
 71
     2
 49
0.5
 62
   256
  6
BYLAYER
 49
-0.5
 62
   256
  6
BYLAYER
  0
ACDBPLACEHOLDER
  5
F
102
{ACAD_REACTORS
330
E
102
}
330
E
  0
TABLESTYLE
  5
2C3
102
{ACAD_XDICTIONARY
360
2DE
102
}
102
{ACAD_REACTORS
330
2C2
102
}
330
2C2
100
AcDbTableStyle
  3
Standard
 70
     0
 71
     0
 40
1.5
 41
1.5
280
     0
281
     0
  7
Standard
140
4.5
170
     2
 62
     0
 63
     7
283
     0
274
    -2
284
     1
 64
     0
275
    -2
285
     1
 65
     0
276
    -2
286
     1
 66
     0
277
    -2
287
     1
 67
     0
278
    -2
288
     1
 68
     0
279
    -2
289
     1
 69
     0
  7
Standard
140
6.0
170
     5
 62
     0
 63
     7
283
     0
274
    -2
284
     1
 64
     0
275
    -2
285
     1
 65
     0
276
    -2
286
     1
 66
     0
277
    -2
287
     1
 67
     0
278
    -2
288
     1
 68
     0
279
    -2
289
     1
 69
     0
  7
Standard
140
4.5
170
     5
 62
     0
 63
     7
283
     0
274
    -2
284
     1
 64
     0
275
    -2
285
     1
 65
     0
276
    -2
286
     1
 66
     0
277
    -2
287
     1
 67
     0
278
    -2
288
     1
 68
     0
279
    -2
289
     1
 69
     0
  0
VISUALSTYLE
  5
2B6
102
{ACAD_REACTORS
330
2B0
102
}
330
2B0
100
AcDbVisualStyle
  2
2dWireframe
 70
     4
 71
     0
 72
     2
 73
     0
 90
        0
 40
-0.6
 41
-30.0
 62
     5
 63
     7
 74
     1
 91
        4
 64
     7
 65
   257
 75
     1
175
     1
 42
1.0
 92
        0
 66
   257
 43
1.0
 76
     1
 77
     6
 78
     2
 67
     7
 79
     5
170
     0
171
     0
290
     0
174
     0
 93
        1
 44
0.0
173
     0
291
     0
 45
0.0
1001
ACAD
1000
AcDbSavedByObjectVersion
1070
     0
  0
VISUALSTYLE
  5
2B8
102
{ACAD_REACTORS
330
2B0
102
}
330
2B0
100
AcDbVisualStyle
  2
3D Hidden
 70
     6
 71
     1
 72
     2
 73
     2
 90
        0
 40
-0.6
 41
-30.0
 62
     5
 63
     7
 74
     2
 91
        2
 64
     7
 65
   257
 75
     2
175
     1
 42
40.0
 92
        0
 66
   257
 43
1.0
 76
     1
 77
     6
 78
     2
 67
     7
 79
     3
170
     0
171
     0
290
     0
174
     0
 93
        1
 44
0.0
173
     0
291
     0
 45
0.0
1001
ACAD
1000
AcDbSavedByObjectVersion
1070
     0
  0
VISUALSTYLE
  5
2B7
102
{ACAD_REACTORS
330
2B0
102
}
330
2B0
100
AcDbVisualStyle
  2
3dWireframe
 70
     5
 71
     0
 72
     2
 73
     0
 90
        0
 40
-0.6
 41
-30.0
 62
     5
 63
     7
 74
     1
 91
        4
 64
     7
 65
   257
 75
     1
175
     1
 42
1.0
 92
        0
 66
   257
 43
1.0
 76
     1
 77
     6
 78
     2
 67
     7
 79
     5
170
     0
171
     0
290
     0
174
     0
 93
        1
 44
0.0
173
     0
291
     0
 45
0.0
1001
ACAD
1000
AcDbSavedByObjectVersion
1070
     0
  0
VISUALSTYLE
  5
2B5
102
{ACAD_REACTORS
330
2B0
102
}
330
2B0
100
AcDbVisualStyle
  2
Basic
 70
     7
 71
     1
 72
     0
 73
     1
 90
        0
 40
-0.6
 41
-30.0
 62
     5
 63
     7
 74
     0
 91
        4
 64
     7
 65
   257
 75
     1
175
     1
 42
1.0
 92
        8
 66
     7
 43
1.0
 76
     1
 77
     6
 78
     2
 67
     7
 79
     5
170
     0
171
     0
290
     0
174
     0
 93
        1
 44
0.0
173
     0
291
     1
 45
0.0
1001
ACAD
1000
AcDbSavedByObjectVersion
1070
     0
  0
VISUALSTYLE
  5
2BC
102
{ACAD_REACTORS
330
2B0
102
}
330
2B0
100
AcDbVisualStyle
  2
Brighten
 70
    12
 71
     2
 72
     2
 73
     0
 90
        0
 40
-0.6
 41
-30.0
 62
     5
 63
     7
 74
     1
 91
        4
 64
     7
 65
   257
 75
     1
175
     1
 42
1.0
 92
        8
 66
     7
 43
1.0
 76
     1
 77
     6
 78
     2
 67
     7
 79
     5
170
     0
171
     0
290
     0
174
     0
 93
        1
 44
50.0
173
     0
291
     1
 45
0.0
1001
ACAD
1000
AcDbSavedByObjectVersion
1070
     0
  0
VISUALSTYLE
  5
2C0
102
{ACAD_REACTORS
330
2B0
102
}
330
2B0
100
AcDbVisualStyle
  2
ColorChange
 70
    16
 71
     2
 72
     2
 73
     3
 90
        0
 40
-0.6
 41
-30.0
 62
     5
 63
     8
 74
     1
 91
        4
 64
     7
 65
   257
 75
     1
175
     1
 42
1.0
 92
        8
 66
     8
 43
1.0
 76
     1
 77
     6
 78
     2
 67
     7
 79
     5
170
     0
171
     0
290
     0
174
     0
 93
        1
 44
0.0
173
     0
291
     1
 45
0.0
1001
ACAD
1000
AcDbSavedByObjectVersion
1070
     0
  0
VISUALSTYLE
  5
2B9
102
{ACAD_REACTORS
330
2B0
102
}
330
2B0
100
AcDbVisualStyle
  2
Conceptual
 70
     9
 71
     3
 72
     2
 73
     0
 90
        0
 40
-0.6
 41
-30.0
 62
     5
 63
     7
 74
     2
 91
        2
 64
     7
 65
   257
 75
     1
175
     1
 42
40.0
 92
        8
 66
     7
 43
1.0
 76
     1
 77
     6
 78
     2
 67
     7
 79
     3
170
     0
171
     0
290
     0
174
     0
 93
        1
 44
0.0
173
     0
291
     0
 45
0.0
1001
ACAD
1000
AcDbSavedByObjectVersion
1070
     0
  0
VISUALSTYLE
  5
2BB
102
{ACAD_REACTORS
330
2B0
102
}
330
2B0
100
AcDbVisualStyle
  2
Dim
 70
    11
 71
     2
 72
     2
 73
     0
 90
        0
 40
-0.6
 41
-30.0
 62
     5
 63
     7
 74
     1
 91
        4
 64
     7
 65
   257
 75
     1
175
     1
 42
1.0
 92
        8
 66
     7
 43
1.0
 76
     1
 77
     6
 78
     2
 67
     7
 79
     5
170
     0
171
     0
290
     0
174
     0
 93
        1
 44
-50.0
173
     0
291
     1
 45
0.0
1001
ACAD
1000
AcDbSavedByObjectVersion
1070
     0
  0
VISUALSTYLE
  5
2BF
102
{ACAD_REACTORS
330
2B0
102
}
330
2B0
100
AcDbVisualStyle
  2
Facepattern
 70
    15
 71
     2
 72
     2
 73
     0
 90
        0
 40
-0.6
 41
-30.0
 62
     5
 63
     7
 74
     1
 91
        4
 64
     7
 65
   257
 75
     1
175
     1
 42
1.0
 92
        8
 66
     7
 43
1.0
 76
     1
 77
     6
 78
     2
 67
     7
 79
     5
170
     0
171
     0
290
     0
174
     0
 93
        1
 44
0.0
173
     0
291
     1
 45
0.0
1001
ACAD
1000
AcDbSavedByObjectVersion
1070
     0
  0
VISUALSTYLE
  5
2B1
102
{ACAD_REACTORS
330
2B0
102
}
330
2B0
100
AcDbVisualStyle
  2
Flat
 70
     0
 71
     2
 72
     1
 73
     1
 90
        2
 40
-0.6
 41
30.0
 62
     5
 63
     7
 74
     0
 91
        4
 64
     7
 65
   257
 75
     1
175
     1
 42
1.0
 92
        8
 66
     7
 43
1.0
 76
     1
 77
     6
 78
     2
 67
     7
 79
     5
170
     0
171
     0
290
     0
174
     0
 93
       13
 44
0.0
173
     0
291
     1
 45
0.0
1001
ACAD
1000
AcDbSavedByObjectVersion
1070
     0
  0
VISUALSTYLE
  5
2B2
102
{ACAD_REACTORS
330
2B0
102
}
330
2B0
100
AcDbVisualStyle
  2
FlatWithEdges
 70
     1
 71
     2
 72
     1
 73
     1
 90
        2
 40
-0.6
 41
30.0
 62
     5
 63
     7
 74
     1
 91
        4
 64
     7
 65
   257
 75
     1
175
     1
 42
1.0
 92
        0
 66
   257
 43
1.0
 76
     1
 77
     6
 78
     2
 67
     7
 79
     5
170
     0
171
     0
290
     0
174
     0
 93
       13
 44
0.0
173
     0
291
     1
 45
0.0
1001
ACAD
1000
AcDbSavedByObjectVersion
1070
     0
  0
VISUALSTYLE
  5
2B3
102
{ACAD_REACTORS
330
2B0
102
}
330
2B0
100
AcDbVisualStyle
  2
Gouraud
 70
     2
 71
     2
 72
     2
 73
     1
 90
        2
 40
-0.6
 41
30.0
 62
     5
 63
     7
 74
     0
 91
        4
 64
     7
 65
   257
 75
     1
175
     1
 42
1.0
 92
        0
 66
     7
 43
1.0
 76
     1
 77
     6
 78
     2
 67
     7
 79
     5
170
     0
171
     0
290
     0
174
     0
 93
       13
 44
0.0
173
     0
291
     1
 45
0.0
1001
ACAD
1000
AcDbSavedByObjectVersion
1070
     0
  0
VISUALSTYLE
  5
2B4
102
{ACAD_REACTORS
330
2B0
102
}
330
2B0
100
AcDbVisualStyle
  2
GouraudWithEdges
 70
     3
 71
     2
 72
     2
 73
     1
 90
        2
 40
-0.6
 41
30.0
 62
     5
 63
     7
 74
     1
 91
        4
 64
     7
 65
   257
 75
     1
175
     1
 42
1.0
 92
        0
 66
   257
 43
1.0
 76
     1
 77
     6
 78
     2
 67
     7
 79
     5
170
     0
171
     0
290
     0
174
     0
 93
       13
 44
0.0
173
     0
291
     1
 45
0.0
1001
ACAD
1000
AcDbSavedByObjectVersion
1070
     0
  0
VISUALSTYLE
  5
2BE
102
{ACAD_REACTORS
330
2B0
102
}
330
2B0
100
AcDbVisualStyle
  2
Linepattern
 70
    14
 71
     2
 72
     2
 73
     0
 90
        0
 40
-0.6
 41
-30.0
 62
     5
 63
     7
 74
     1
 91
        4
 64
     7
 65
   257
 75
     7
175
     7
 42
1.0
 92
        8
 66
     7
 43
1.0
 76
     1
 77
     6
 78
     2
 67
     7
 79
     5
170
     0
171
     0
290
     0
174
     0
 93
        1
 44
0.0
173
     0
291
     1
 45
0.0
1001
ACAD
1000
AcDbSavedByObjectVersion
1070
     0
  0
VISUALSTYLE
  5
2BA
102
{ACAD_REACTORS
330
2B0
102
}
330
2B0
100
AcDbVisualStyle
  2
Realistic
 70
     8
 71
     2
 72
     2
 73
     0
 90
        0
 40
-0.6
 41
-30.0
 62
     5
 63
     7
 74
     1
 91
        0
 64
     7
 65
   257
 75
     1
175
     1
 42
1.0
 92
        8
 66
     8
 43
1.0
 76
     1
 77
     6
 78
     2
 67
     7
 79
     5
170
     0
171
     0
290
     0
174
     0
 93
       13
 44
0.0
173
     0
291
     0
 45
0.0
1001
ACAD
1000
AcDbSavedByObjectVersion
1070
     0
  0
VISUALSTYLE
  5
2BD
102
{ACAD_REACTORS
330
2B0
102
}
330
2B0
100
AcDbVisualStyle
  2
Thicken
 70
    13
 71
     2
 72
     2
 73
     0
 90
        0
 40
-0.6
 41
-30.0
 62
     5
 63
     7
 74
     1
 91
        4
 64
     7
 65
   257
 75
     1
175
     1
 42
1.0
 92
       12
 66
     7
 43
1.0
 76
     1
 77
     6
 78
     2
 67
     7
 79
     5
170
     0
171
     0
290
     0
174
     0
 93
        1
 44
0.0
173
     0
291
     1
 45
0.0
1001
ACAD
1000
AcDbSavedByObjectVersion
1070
     0
  0
DICTIONARYVAR
  5
2CD
102
{ACAD_REACTORS
330
2CC
102
}
330
2CC
100
DictionaryVariables
280
     0
  1
STANDARD
  0
DICTIONARYVAR
  5
2D0
102
{ACAD_REACTORS
330
2CC
102
}
330
2CC
100
DictionaryVariables
280
     0
  1
1
  0
DICTIONARYVAR
  5
2CF
102
{ACAD_REACTORS
330
2CC
102
}
330
2CC
100
DictionaryVariables
280
     0
  1
0
  0
DICTIONARYVAR
  5
2CE
102
{ACAD_REACTORS
330
2CC
102
}
330
2CC
100
DictionaryVariables
280
     0
  1
127
  0
DICTIONARY
  5
2D4
330
22
100
AcDbDictionary
280
     1
281
     1
  3
ACAD_XREC_ROUNDTRIP
360
2D5
  0
DICTIONARY
  5
2D2
330
1E
100
AcDbDictionary
280
     1
281
     1
  3
ACAD_XREC_ROUNDTRIP
360
2D3
  0
DICTIONARY
  5
2D6
330
26
100
AcDbDictionary
280
     1
281
     1
  3
ACAD_XREC_ROUNDTRIP
360
2D7
  0
DICTIONARY
  5
2DA
330
2AE
100
AcDbDictionary
280
     1
281
     1
  3
ACAD_XREC_ROUNDTRIP
360
2DB
  0
DICTIONARY
  5
2D8
330
2AD
100
AcDbDictionary
280
     1
281
     1
  3
ACAD_XREC_ROUNDTRIP
360
2D9
  0
DICTIONARY
  5
2DC
330
2AF
100
AcDbDictionary
280
     1
281
     1
  3
ACAD_XREC_ROUNDTRIP
360
2DD
  0
DICTIONARY
  5
2DE
330
2C3
100
AcDbDictionary
280
     1
281
     1
  3
ACAD_XREC_ROUNDTRIP
360
2DF
  0
XRECORD
  5
2D5
102
{ACAD_REACTORS
330
2D4
102
}
330
2D4
100
AcDbXrecord
280
     1
102
SHADEPLOT
 70
     0
102
SHADEPLOTRESLEVEL
 70
     2
102
SHADEPLOTCUSTOMDPI
 70
   300
  0
XRECORD
  5
2D3
102
{ACAD_REACTORS
330
2D2
102
}
330
2D2
100
AcDbXrecord
280
     1
102
SHADEPLOT
 70
     0
102
SHADEPLOTRESLEVEL
 70
     2
102
SHADEPLOTCUSTOMDPI
 70
   300
  0
XRECORD
  5
2D7
102
{ACAD_REACTORS
330
2D6
102
}
330
2D6
100
AcDbXrecord
280
     1
102
SHADEPLOT
 70
     0
102
SHADEPLOTRESLEVEL
 70
     2
102
SHADEPLOTCUSTOMDPI
 70
   300
  0
XRECORD
  5
2DB
102
{ACAD_REACTORS
330
2DA
102
}
330
2DA
100
AcDbXrecord
280
     1
102
MATERIAL
148
0.0
149
0.0
149
0.0
 93
        0
 94
       63
282
     0
 72
     1
 77
     1
171
     1
175
     1
179
     1
273
     0
  0
XRECORD
  5
2D9
102
{ACAD_REACTORS
330
2D8
102
}
330
2D8
100
AcDbXrecord
280
     1
102
MATERIAL
148
0.0
149
0.0
149
0.0
 93
        0
 94
       63
282
     0
 72
     1
 77
     1
171
     1
175
     1
179
     1
273
     0
  0
XRECORD
  5
2DD
102
{ACAD_REACTORS
330
2DC
102
}
330
2DC
100
AcDbXrecord
280
     1
102
MATERIAL
148
0.0
149
0.0
149
0.0
 93
        0
 94
       63
282
     0
 72
     1
 77
     1
171
     1
175
     1
179
     1
273
     0
  0
XRECORD
  5
2DF
102
{ACAD_REACTORS
330
2DE
102
}
330
2DE
100
AcDbXrecord
280
     1
102
ACAD_ROUNDTRIP_PRE2007_TABLESTYLE
 90
      512
 91
        0
  1

 92
      512
 93
        0
  2

 94
      512
 95
        0
  3

  0
ENDSEC
  0
EOF
