  0
SECTION
  2
HEADER
  9
$ACADVER
  1
AC1015
  9
$ACADMAINTVER
 70
    20
  9
$DWGCODEPAGE
  3
ANSI_932
  9
$INSBASE
 10
0.0
 20
0.0
 30
0.0
  9
$EXTMIN
 10
72.26504663315722
 20
63.46527204786582
 30
-0.0015258207003583
  9
$EXTMAX
 10
403.5440380265283
 20
378.1961068862538
 30
7.901001020685079
  9
$LIMMIN
 10
0.0
 20
0.0
  9
$LIMMAX
 10
594.0
 20
420.0
  9
$ORTHOMODE
 70
     0
  9
$REGENMODE
 70
     1
  9
$FILLMODE
 70
     1
  9
$QTEXTMODE
 70
     0
  9
$MIRRTEXT
 70
     0
  9
$LTSCALE
 40
1.0
  9
$ATTMODE
 70
     1
  9
$TEXTSIZE
 40
0.2
  9
$TRACEWID
 40
0.05
  9
$TEXTSTYLE
  7
STANDARD
  9
$CLAYER
  8
0
  9
$CELTYPE
  6
CONTINUOUS
  9
$CECOLOR
 62
   256
  9
$CELTSCALE
 40
1.0
  9
$DISPSILH
 70
     0
  9
$DIMSCALE
 40
1.0
  9
$DIMASZ
 40
0.18
  9
$DIMEXO
 40
0.0625
  9
$DIMDLI
 40
0.38
  9
$DIMRND
 40
0.0
  9
$DIMDLE
 40
0.0
  9
$DIMEXE
 40
0.18
  9
$DIMTP
 40
0.0
  9
$DIMTM
 40
0.0
  9
$DIMTXT
 40
0.18
  9
$DIMCEN
 40
0.09
  9
$DIMTSZ
 40
0.0
  9
$DIMTOL
 70
     0
  9
$DIMLIM
 70
     0
  9
$DIMTIH
 70
     1
  9
$DIMTOH
 70
     1
  9
$DIMSE1
 70
     0
  9
$DIMSE2
 70
     0
  9
$DIMTAD
 70
     0
  9
$DIMZIN
 70
     0
  9
$DIMBLK
  1

  9
$DIMASO
 70
     1
  9
$DIMSHO
 70
     1
  9
$DIMPOST
  1

  9
$DIMAPOST
  1

  9
$DIMALT
 70
     0
  9
$DIMALTD
 70
     2
  9
$DIMALTF
 40
25.4
  9
$DIMLFAC
 40
1.0
  9
$DIMTOFL
 70
     0
  9
$DIMTVP
 40
0.0
  9
$DIMTIX
 70
     0
  9
$DIMSOXD
 70
     0
  9
$DIMSAH
 70
     0
  9
$DIMBLK1
  1

  9
$DIMBLK2
  1

  9
$DIMSTYLE
  2
Standard
  9
$DIMCLRD
 70
     0
  9
$DIMCLRE
 70
     0
  9
$DIMCLRT
 70
     0
  9
$DIMTFAC
 40
1.0
  9
$DIMGAP
 40
0.09
  9
$DIMJUST
 70
     0
  9
$DIMSD1
 70
     0
  9
$DIMSD2
 70
     0
  9
$DIMTOLJ
 70
     1
  9
$DIMTZIN
 70
     0
  9
$DIMALTZ
 70
     0
  9
$DIMALTTZ
 70
     0
  9
$DIMUPT
 70
     0
  9
$DIMDEC
 70
     4
  9
$DIMTDEC
 70
     4
  9
$DIMALTU
 70
     2
  9
$DIMALTTD
 70
     2
  9
$DIMTXSTY
  7
STANDARD
  9
$DIMAUNIT
 70
     0
  9
$DIMADEC
 70
     0
  9
$DIMALTRND
 40
0.0
  9
$DIMAZIN
 70
     0
  9
$DIMDSEP
 70
    46
  9
$DIMATFIT
 70
     3
  9
$DIMFRAC
 70
     0
  9
$DIMLDRBLK
  1

  9
$DIMLUNIT
 70
     2
  9
$DIMLWD
 70
    -2
  9
$DIMLWE
 70
    -2
  9
$DIMTMOVE
 70
     0
  9
$LUNITS
 70
     2
  9
$LUPREC
 70
     4
  9
$SKETCHINC
 40
0.1
  9
$FILLETRAD
 40
0.0
  9
$AUNITS
 70
     0
  9
$AUPREC
 70
     0
  9
$MENU
  1
.
  9
$ELEVATION
 40
0.0
  9
$PELEVATION
 40
0.0
  9
$THICKNESS
 40
0.0
  9
$LIMCHECK
 70
     0
  9
$CHAMFERA
 40
0.0
  9
$CHAMFERB
 40
0.0
  9
$CHAMFERC
 40
0.0
  9
$CHAMFERD
 40
0.0
  9
$SKPOLY
 70
     0
  9
$TDCREATE
 40
2453592.390144850
  9
$TDUCREATE
 40
2453592.015144850
  9
$TDUPDATE
 40
2453592.390802581
  9
$TDUUPDATE
 40
2453592.015802581
  9
$TDINDWG
 40
0.0006586343
  9
$TDUSRTIMER
 40
0.0006586343
  9
$USRTIMER
 70
     1
  9
$ANGBASE
 50
0.0
  9
$ANGDIR
 70
     0
  9
$PDMODE
 70
     0
  9
$PDSIZE
 40
0.0
  9
$PLINEWID
 40
0.0
  9
$SPLFRAME
 70
     0
  9
$SPLINETYPE
 70
     6
  9
$SPLINESEGS
 70
     8
  9
$HANDSEED
  5
256
  9
$SURFTAB1
 70
     6
  9
$SURFTAB2
 70
     6
  9
$SURFTYPE
 70
     6
  9
$SURFU
 70
     6
  9
$SURFV
 70
     6
  9
$UCSBASE
  2

  9
$UCSNAME
  2

  9
$UCSORG
 10
0.0
 20
0.0
 30
0.0
  9
$UCSXDIR
 10
1.0
 20
0.0
 30
0.0
  9
$UCSYDIR
 10
0.0
 20
1.0
 30
0.0
  9
$UCSORTHOREF
  2

  9
$UCSORTHOVIEW
 70
     0
  9
$UCSORGTOP
 10
0.0
 20
0.0
 30
0.0
  9
$UCSORGBOTTOM
 10
0.0
 20
0.0
 30
0.0
  9
$UCSORGLEFT
 10
0.0
 20
0.0
 30
0.0
  9
$UCSORGRIGHT
 10
0.0
 20
0.0
 30
0.0
  9
$UCSORGFRONT
 10
0.0
 20
0.0
 30
0.0
  9
$UCSORGBACK
 10
0.0
 20
0.0
 30
0.0
  9
$PUCSBASE
  2

  9
$PUCSNAME
  2

  9
$PUCSORG
 10
0.0
 20
0.0
 30
0.0
  9
$PUCSXDIR
 10
1.0
 20
0.0
 30
0.0
  9
$PUCSYDIR
 10
0.0
 20
1.0
 30
0.0
  9
$PUCSORTHOREF
  2

  9
$PUCSORTHOVIEW
 70
     0
  9
$PUCSORGTOP
 10
0.0
 20
0.0
 30
0.0
  9
$PUCSORGBOTTOM
 10
0.0
 20
0.0
 30
0.0
  9
$PUCSORGLEFT
 10
0.0
 20
0.0
 30
0.0
  9
$PUCSORGRIGHT
 10
0.0
 20
0.0
 30
0.0
  9
$PUCSORGFRONT
 10
0.0
 20
0.0
 30
0.0
  9
$PUCSORGBACK
 10
0.0
 20
0.0
 30
0.0
  9
$USERI1
 70
     0
  9
$USERI2
 70
     0
  9
$USERI3
 70
     0
  9
$USERI4
 70
     0
  9
$USERI5
 70
     0
  9
$USERR1
 40
0.0
  9
$USERR2
 40
0.0
  9
$USERR3
 40
0.0
  9
$USERR4
 40
0.0
  9
$USERR5
 40
0.0
  9
$WORLDVIEW
 70
     1
  9
$SHADEDGE
 70
     3
  9
$SHADEDIF
 70
    70
  9
$TILEMODE
 70
     1
  9
$MAXACTVP
 70
    64
  9
$PINSBASE
 10
0.0
 20
0.0
 30
0.0
  9
$PLIMCHECK
 70
     0
  9
$PEXTMIN
 10
1.000000000000000E+20
 20
1.000000000000000E+20
 30
1.000000000000000E+20
  9
$PEXTMAX
 10
-1.000000000000000E+20
 20
-1.000000000000000E+20
 30
-1.000000000000000E+20
  9
$PLIMMIN
 10
0.0
 20
0.0
  9
$PLIMMAX
 10
12.0
 20
9.0
  9
$UNITMODE
 70
     0
  9
$VISRETAIN
 70
     1
  9
$PLINEGEN
 70
     0
  9
$PSLTSCALE
 70
     1
  9
$TREEDEPTH
 70
  3020
  9
$CMLSTYLE
  2
Standard
  9
$CMLJUST
 70
     0
  9
$CMLSCALE
 40
1.0
  9
$PROXYGRAPHICS
 70
     1
  9
$MEASUREMENT
 70
     0
  9
$CELWEIGHT
370
    -1
  9
$ENDCAPS
280
     0
  9
$JOINSTYLE
280
     0
  9
$LWDISPLAY
290
     0
  9
$INSUNITS
 70
     0
  9
$HYPERLINKBASE
  1

  9
$STYLESHEET
  1

  9
$XEDIT
290
     1
  9
$CEPSNTYPE
380
     0
  9
$PSTYLEMODE
290
     1
  9
$FINGERPRINTGUID
  2
{C78969EC-3597-45E9-AFEF-8487A07B3C23}
  9
$VERSIONGUID
  2
{A8FBF248-4F7F-4B08-A3D4-1490ECB318FF}
  9
$EXTNAMES
290
     1
  9
$PSVPSCALE
 40
0.0
  9
$OLESTARTUP
290
     0
  0
ENDSEC
  0
SECTION
  2
CLASSES
  0
CLASS
  1
ACDBDICTIONARYWDFLT
  2
AcDbDictionaryWithDefault
  3
ObjectDBX Classes
 90
        0
280
     0
281
     0
  0
CLASS
  1
DICTIONARYVAR
  2
AcDbDictionaryVar
  3
ObjectDBX Classes
 90
        0
280
     0
281
     0
  0
CLASS
  1
ACDBPLACEHOLDER
  2
AcDbPlaceHolder
  3
ObjectDBX Classes
 90
        0
280
     0
281
     0
  0
CLASS
  1
LAYOUT
  2
AcDbLayout
  3
ObjectDBX Classes
 90
        0
280
     0
281
     0
  0
ENDSEC
  0
SECTION
  2
TABLES
  0
TABLE
  2
VPORT
  5
8
330
0
100
AcDbSymbolTable
 70
     2
  0
VPORT
  5
24E
330
8
100
AcDbSymbolTableRecord
100
AcDbViewportTableRecord
  2
*Active
 70
     0
 10
0.0
 20
0.0
 11
1.0
 21
1.0
 12
296.9999999999999
 22
210.0
 13
0.0
 23
0.0
 14
1.0
 24
1.0
 15
0.0
 25
0.0
 16
0.0
 26
0.0
 36
1.0
 17
0.0
 27
0.0
 37
0.0
 40
424.7279549718574
 41
1.785714285714285
 42
50.0
 43
0.0
 44
0.0
 50
0.0
 51
0.0
 71
     0
 72
   100
 73
     1
 74
     1
 75
     0
 76
     0
 77
     0
 78
     0
281
     0
 65
     1
110
0.0
120
0.0
130
0.0
111
1.0
121
0.0
131
0.0
112
0.0
122
1.0
132
0.0
 79
     0
146
0.0
  0
ENDTAB
  0
TABLE
  2
LTYPE
  5
5
330
0
100
AcDbSymbolTable
 70
     2
  0
LTYPE
  5
13
330
5
100
AcDbSymbolTableRecord
100
AcDbLinetypeTableRecord
  2
ByBlock
 70
     0
  3

 72
    65
 73
     0
 40
0.0
  0
LTYPE
  5
14
330
5
100
AcDbSymbolTableRecord
100
AcDbLinetypeTableRecord
  2
ByLayer
 70
     0
  3

 72
    65
 73
     0
 40
0.0
  0
LTYPE
  5
15
330
5
100
AcDbSymbolTableRecord
100
AcDbLinetypeTableRecord
  2
CONTINUOUS
 70
     0
  3
Solid line
 72
    65
 73
     0
 40
0.0
  0
LTYPE
  5
24
330
5
100
AcDbSymbolTableRecord
100
AcDbLinetypeTableRecord
  2
LTYPE1
 70
     0
  3
CENTER
 72
    65
 73
     4
 40
15.0
 49
10.5
 74
     0
 49
-1.5
 74
     0
 49
1.5
 74
     0
 49
-1.5
 74
     0
  0
ENDTAB
  0
TABLE
  2
LAYER
  5
2
330
0
100
AcDbSymbolTable
 70
   128
  0
LAYER
  5
10
330
2
100
AcDbSymbolTableRecord
100
AcDbLayerTableRecord
  2
0
 70
     0
 62
     7
  6
CONTINUOUS
370
    -3
390
F
  0
LAYER
  5
25
330
2
100
AcDbSymbolTableRecord
100
AcDbLayerTableRecord
  2
2
 70
     0
 62
     7
  6
CONTINUOUS
370
    -3
390
F
  0
ENDTAB
  0
TABLE
  2
STYLE
  5
3
330
0
100
AcDbSymbolTable
 70
    10
  0
STYLE
  5
11
330
3
100
AcDbSymbolTableRecord
100
AcDbTextStyleTableRecord
  2
STANDARD
 70
     0
 40
0.0
 41
1.0
 50
0.0
 71
     0
 42
0.2
  3
txt
  4

  0
STYLE
  5
A4
330
3
100
AcDbSymbolTableRecord
100
AcDbTextStyleTableRecord
  2
KANJI0
 70
     0
 40
4.9
 41
0.7653061220000001
 50
0.0
 71
     0
 42
4.9
  3

  4
bigfont
  0
STYLE
  5
A5
330
3
100
AcDbSymbolTableRecord
100
AcDbTextStyleTableRecord
  2
KANJI1
 70
     0
 40
4.41
 41
0.7653061220000001
 50
0.0
 71
     0
 42
4.41
  3

  4
bigfont
  0
STYLE
  5
A6
330
3
100
AcDbSymbolTableRecord
100
AcDbTextStyleTableRecord
  2
KANJI2
 70
     0
 40
4.799999999999999
 41
0.8402777779999999
 50
0.0
 71
     0
 42
4.799999999999999
  3

  4
bigfont
  0
STYLE
  5
A7
330
3
100
AcDbSymbolTableRecord
100
AcDbTextStyleTableRecord
  2
KANJI3
 70
     0
 40
6.0
 41
1.0
 50
0.0
 71
     0
 42
6.0
  3

  4
bigfont
  0
STYLE
  5
A8
330
3
100
AcDbSymbolTableRecord
100
AcDbTextStyleTableRecord
  2
KANJI4
 70
     0
 40
6.36
 41
1.0
 50
0.0
 71
     0
 42
6.36
  3

  4
bigfont
  0
STYLE
  5
A9
330
3
100
AcDbSymbolTableRecord
100
AcDbTextStyleTableRecord
  2
KANJI5
 70
     0
 40
8.793749999999999
 41
0.7174129350000001
 50
0.0
 71
     0
 42
8.793749999999999
  3

  4
bigfont
  0
STYLE
  5
AA
330
3
100
AcDbSymbolTableRecord
100
AcDbTextStyleTableRecord
  2
KANJI6
 70
     0
 40
6.599999999999999
 41
1.0
 50
0.0
 71
     0
 42
6.599999999999999
  3

  4
bigfont
  0
STYLE
  5
AB
330
3
100
AcDbSymbolTableRecord
100
AcDbTextStyleTableRecord
  2
KANJI7
 70
     0
 40
5.9
 41
1.0
 50
0.0
 71
     0
 42
5.9
  3

  4
bigfont
  0
STYLE
  5
AC
330
3
100
AcDbSymbolTableRecord
100
AcDbTextStyleTableRecord
  2
KANJI8
 70
     0
 40
6.299999999999999
 41
1.0
 50
0.0
 71
     0
 42
6.299999999999999
  3

  4
bigfont
  0
ENDTAB
  0
TABLE
  2
VIEW
  5
6
330
0
100
AcDbSymbolTable
 70
     0
  0
ENDTAB
  0
TABLE
  2
UCS
  5
7
330
0
100
AcDbSymbolTable
 70
     0
  0
ENDTAB
  0
TABLE
  2
APPID
  5
9
330
0
100
AcDbSymbolTable
 70
     1
  0
APPID
  5
12
330
9
100
AcDbSymbolTableRecord
100
AcDbRegAppTableRecord
  2
ACAD
 70
     0
  0
ENDTAB
  0
TABLE
  2
DIMSTYLE
  5
A
330
0
100
AcDbSymbolTable
 70
     1
100
AcDbDimStyleTable
 71
     0
  0
DIMSTYLE
105
249
330
A
100
AcDbSymbolTableRecord
100
AcDbDimStyleTableRecord
  2
Standard
 70
     0
340
11
  0
ENDTAB
  0
TABLE
  2
BLOCK_RECORD
  5
1
330
0
100
AcDbSymbolTable
 70
     0
  0
BLOCK_RECORD
  5
20
330
1
100
AcDbSymbolTableRecord
100
AcDbBlockTableRecord
  2
*Model_Space
340
23
  0
BLOCK_RECORD
  5
1C
330
1
100
AcDbSymbolTableRecord
100
AcDbBlockTableRecord
  2
*Paper_Space
340
1F
  0
ENDTAB
  0
ENDSEC
  0
SECTION
  2
BLOCKS
  0
BLOCK
  5
21
330
20
100
AcDbEntity
  8
0
100
AcDbBlockBegin
  2
*Model_Space
 70
     0
 10
0.0
 20
0.0
 30
0.0
  3
*Model_Space
  1

  0
ENDBLK
  5
22
330
20
100
AcDbEntity
  8
0
100
AcDbBlockEnd
  0
BLOCK
  5
1D
330
1C
100
AcDbEntity
 67
     1
  8
0
100
AcDbBlockBegin
  2
*Paper_Space
 70
     0
 10
0.0
 20
0.0
 30
0.0
  3
*Paper_Space
  1

  0
ENDBLK
  5
1E
330
1C
100
AcDbEntity
 67
     1
  8
0
100
AcDbBlockEnd
  0
ENDSEC
  0
SECTION
  2
ENTITIES
  0
ARC
  5
B0
330
20
100
AcDbEntity
  8
0
  6
Continuous
 62
     3
100
AcDbCircle
 10
126.558
 20
102.88075
 30
0.0
 40
2.0
100
AcDbArc
 50
180.0
 51
270.0
  0
LINE
  5
B1
330
20
100
AcDbEntity
  8
0
  6
Continuous
 62
     3
100
AcDbLine
 10
126.558
 20
100.88075
 30
0.0
 11
202.558
 21
100.88075
 31
0.0
  0
ARC
  5
B2
330
20
100
AcDbEntity
  8
0
  6
Continuous
 62
     3
100
AcDbCircle
 10
202.558
 20
102.88075
 30
0.0
 40
2.0
100
AcDbArc
 50
270.0
 51
0.0
  0
LINE
  5
B3
330
20
100
AcDbEntity
  8
0
  6
Continuous
 62
     3
100
AcDbLine
 10
204.558
 20
102.88075
 30
0.0
 11
204.558
 21
178.88075
 31
0.0
  0
ARC
  5
B4
330
20
100
AcDbEntity
  8
0
  6
Continuous
 62
     3
100
AcDbCircle
 10
202.558
 20
178.88075
 30
0.0
 40
2.0
100
AcDbArc
 50
0.0
 51
90.0
  0
LINE
  5
B5
330
20
100
AcDbEntity
  8
0
  6
Continuous
 62
     3
100
AcDbLine
 10
202.558
 20
180.88075
 30
0.0
 11
126.558
 21
180.88075
 31
0.0
  0
ARC
  5
B6
330
20
100
AcDbEntity
  8
0
  6
Continuous
 62
     3
100
AcDbCircle
 10
126.558
 20
178.88075
 30
0.0
 40
2.0
100
AcDbArc
 50
90.0
 51
180.0
  0
LINE
  5
B7
330
20
100
AcDbEntity
  8
0
  6
Continuous
 62
     3
100
AcDbLine
 10
124.558
 20
178.88075
 30
0.0
 11
124.558
 21
102.88075
 31
0.0
  0
CIRCLE
  5
B8
330
20
100
AcDbEntity
  8
0
  6
Continuous
 62
     3
100
AcDbCircle
 10
164.558
 20
140.88075
 30
0.0
 40
39.100127877
  0
CIRCLE
  5
B9
330
20
100
AcDbEntity
  8
0
  6
Continuous
 62
     3
100
AcDbCircle
 10
164.558
 20
140.88075
 30
0.0
 40
38.204711751
  0
CIRCLE
  5
BA
330
20
100
AcDbEntity
  8
0
  6
Continuous
 62
     3
100
AcDbCircle
 10
164.558
 20
140.88075
 30
0.0
 40
7.515317690999999
  0
CIRCLE
  5
BB
330
20
100
AcDbEntity
  8
0
  6
Continuous
 62
     3
100
AcDbCircle
 10
164.558
 20
140.88075
 30
0.0
 40
6.82191727
  0
CIRCLE
  5
BC
330
20
100
AcDbEntity
  8
0
  6
Continuous
 62
     3
100
AcDbCircle
 10
164.558
 20
140.88075
 30
0.0
 40
6.099999999999999
  0
CIRCLE
  5
BD
330
20
100
AcDbEntity
  8
0
  6
Continuous
 62
     3
100
AcDbCircle
 10
164.558
 20
140.88075
 30
0.0
 40
5.403702433999999
  0
CIRCLE
  5
BE
330
20
100
AcDbEntity
  8
0
  6
Continuous
 62
     3
100
AcDbCircle
 10
164.558
 20
140.88075
 30
0.0
 40
4.609772228999999
  0
CIRCLE
  5
BF
330
20
100
AcDbEntity
  8
0
  6
Continuous
 62
     3
100
AcDbCircle
 10
164.558
 20
140.88075
 30
0.0
 40
3.799999999999999
  0
LINE
  5
C0
330
20
100
AcDbEntity
  8
0
  6
Continuous
 62
     3
100
AcDbLine
 10
160.843164876
 20
141.68075
 30
0.0
 11
168.2728351239999
 21
141.68075
 31
0.0
  0
LINE
  5
C1
330
20
100
AcDbEntity
  8
0
  6
Continuous
 62
     3
100
AcDbLine
 10
160.843164876
 20
140.08075
 30
0.0
 11
168.2728351239999
 21
140.08075
 31
0.0
  0
LINE
  5
C2
330
20
100
AcDbEntity
  8
0
  6
Continuous
 62
     3
100
AcDbLine
 10
135.058
 20
128.98075
 30
0.0
 11
157.125010275
 21
139.771397149
 31
0.0
  0
LINE
  5
C3
330
20
100
AcDbEntity
  8
0
  6
Continuous
 62
     3
100
AcDbLine
 10
135.058
 20
128.98075
 30
0.0
 11
158.196282714
 21
136.879680996
 31
0.0
  0
CIRCLE
  5
C4
330
20
100
AcDbEntity
  8
0
  6
Continuous
 62
     3
100
AcDbCircle
 10
164.558
 20
260.98075
 30
0.0
 40
33.5
  0
CIRCLE
  5
C5
330
20
100
AcDbEntity
  8
0
  6
Continuous
 62
     3
100
AcDbCircle
 10
132.558
 20
292.98075
 30
0.0
 40
2.0
  0
CIRCLE
  5
C6
330
20
100
AcDbEntity
  8
0
  6
Continuous
 62
     3
100
AcDbCircle
 10
196.558
 20
292.98075
 30
0.0
 40
2.0
  0
CIRCLE
  5
C7
330
20
100
AcDbEntity
  8
0
  6
Continuous
 62
     3
100
AcDbCircle
 10
132.558
 20
228.98075
 30
0.0
 40
2.0
  0
CIRCLE
  5
C8
330
20
100
AcDbEntity
  8
0
  6
Continuous
 62
     3
100
AcDbCircle
 10
196.558
 20
228.98075
 30
0.0
 40
2.0
  0
CIRCLE
  5
C9
330
20
100
AcDbEntity
  8
0
  6
Continuous
 62
     3
100
AcDbCircle
 10
164.558
 20
140.88075
 30
0.0
 40
35.828619845
  0
LINE
  5
CA
330
20
100
AcDbEntity
  8
0
  6
Continuous
 62
     3
100
AcDbLine
 10
138.129505032
 20
125.622251316
 30
0.0
 11
133.529505032
 21
122.966440077
 31
0.0
  0
LINE
  5
CB
330
20
100
AcDbEntity
  8
0
  6
Continuous
 62
     3
100
AcDbLine
 10
190.986494968
 20
125.622251316
 30
0.0
 11
195.586494968
 21
122.966440077
 31
0.0
  0
LINE
  5
CC
330
20
100
AcDbEntity
  8
0
  6
Continuous
 62
     3
100
AcDbLine
 10
134.208177936
 20
137.690855162
 30
0.0
 11
128.925653083
 21
137.135639427
 31
0.0
  0
LINE
  5
CD
330
20
100
AcDbEntity
  8
0
  6
Continuous
 62
     3
100
AcDbLine
 10
135.534610795
 20
150.311020804
 30
0.0
 11
130.482957627
 21
151.952402417
 31
0.0
  0
LINE
  5
CE
330
20
100
AcDbEntity
  8
0
  6
Continuous
 62
     3
100
AcDbLine
 10
141.879451316
 20
161.300606953
 30
0.0
 11
137.932146558
 21
164.854776122
 31
0.0
  0
LINE
  5
CF
330
20
100
AcDbEntity
  8
0
  6
Continuous
 62
     3
100
AcDbLine
 10
152.145618934
 20
168.759414327
 30
0.0
 11
149.985187438
 21
173.611822913
 31
0.0
  0
LINE
  5
D0
330
20
100
AcDbEntity
  8
0
  6
Continuous
 62
     3
100
AcDbLine
 10
164.558
 20
171.397747368
 30
0.0
 11
164.558
 21
176.709369845
 31
0.0
  0
LINE
  5
D1
330
20
100
AcDbEntity
  8
0
  6
Continuous
 62
     3
100
AcDbLine
 10
176.970381066
 20
168.759414327
 30
0.0
 11
179.130812562
 21
173.611822913
 31
0.0
  0
LINE
  5
D2
330
20
100
AcDbEntity
  8
0
  6
Continuous
 62
     3
100
AcDbLine
 10
187.236548683
 20
161.300606953
 30
0.0
 11
191.183853442
 21
164.854776122
 31
0.0
  0
LINE
  5
D3
330
20
100
AcDbEntity
  8
0
  6
Continuous
 62
     3
100
AcDbLine
 10
193.581389205
 20
150.311020804
 30
0.0
 11
198.633042373
 21
151.952402417
 31
0.0
  0
LINE
  5
D4
330
20
100
AcDbEntity
  8
0
  6
Continuous
 62
     3
100
AcDbLine
 10
194.907822064
 20
137.690855162
 30
0.0
 11
200.190346917
 21
137.135639427
 31
0.0
  0
LINE
  5
D5
330
20
100
AcDbEntity
  8
0
  6
LTYPE1
 62
     1
100
AcDbLine
 10
132.558
 20
289.48075
 30
0.0
 11
132.558
 21
296.48075
 31
0.0
  0
LINE
  5
D6
330
20
100
AcDbEntity
  8
0
  6
LTYPE1
 62
     1
100
AcDbLine
 10
136.058
 20
292.98075
 30
0.0
 11
129.058
 21
292.98075
 31
0.0
  0
LINE
  5
D7
330
20
100
AcDbEntity
  8
0
  6
LTYPE1
 62
     1
100
AcDbLine
 10
196.558
 20
289.48075
 30
0.0
 11
196.558
 21
296.48075
 31
0.0
  0
LINE
  5
D8
330
20
100
AcDbEntity
  8
0
  6
LTYPE1
 62
     1
100
AcDbLine
 10
193.058
 20
292.98075
 30
0.0
 11
200.058
 21
292.98075
 31
0.0
  0
LINE
  5
D9
330
20
100
AcDbEntity
  8
0
  6
LTYPE1
 62
     1
100
AcDbLine
 10
132.558
 20
232.48075
 30
0.0
 11
132.558
 21
225.48075
 31
0.0
  0
LINE
  5
DA
330
20
100
AcDbEntity
  8
0
  6
LTYPE1
 62
     1
100
AcDbLine
 10
136.058
 20
228.98075
 30
0.0
 11
129.058
 21
228.98075
 31
0.0
  0
LINE
  5
DB
330
20
100
AcDbEntity
  8
0
  6
LTYPE1
 62
     1
100
AcDbLine
 10
196.558
 20
232.48075
 30
0.0
 11
196.558
 21
225.48075
 31
0.0
  0
LINE
  5
DC
330
20
100
AcDbEntity
  8
0
  6
LTYPE1
 62
     1
100
AcDbLine
 10
193.058
 20
228.98075
 30
0.0
 11
200.058
 21
228.98075
 31
0.0
  0
LINE
  5
DD
330
20
100
AcDbEntity
  8
0
  6
LTYPE1
 62
     1
100
AcDbLine
 10
202.258
 20
260.98075
 30
0.0
 11
126.858
 21
260.98075
 31
0.0
  0
LINE
  5
DE
330
20
100
AcDbEntity
  8
0
  6
LTYPE1
 62
     1
100
AcDbLine
 10
164.558
 20
298.38075
 30
0.0
 11
164.558
 21
223.58075
 31
0.0
  0
LINE
  5
DF
330
20
100
AcDbEntity
  8
0
  6
Continuous
 62
     4
100
AcDbLine
 10
135.729505032
 20
127.315089987
 30
0.0
 11
132.139295512
 21
125.625665625
 31
0.0
  0
LINE
  5
E0
330
20
100
AcDbEntity
  8
0
  6
Continuous
 62
     4
100
AcDbLine
 10
134.695465448
 20
129.774972951
 30
0.0
 11
130.976479911
 21
128.391894628
 31
0.0
  0
LINE
  5
E1
330
20
100
AcDbEntity
  8
0
  6
Continuous
 62
     4
100
AcDbLine
 10
133.870890088
 20
132.312754962
 30
0.0
 11
130.049214545
 21
131.245723978
 31
0.0
  0
LINE
  5
E2
330
20
100
AcDbEntity
  8
0
  6
Continuous
 62
     4
100
AcDbLine
 10
133.261562755
 20
134.910635302
 30
0.0
 11
129.364003515
 21
134.167136114
 31
0.0
  0
LINE
  5
E3
330
20
100
AcDbEntity
  8
0
  6
Continuous
 62
     4
100
AcDbLine
 10
132.704208356
 20
140.213508183
 30
0.0
 11
128.737237963
 21
140.1304119989999
 31
0.0
  0
LINE
  5
E4
330
20
100
AcDbEntity
  8
0
  6
Continuous
 62
     4
100
AcDbLine
 10
132.760090731
 20
142.881304881
 30
0.0
 11
128.800079752
 21
143.130447654
 31
0.0
  0
LINE
  5
E5
330
20
100
AcDbEntity
  8
0
  6
Continuous
 62
     4
100
AcDbLine
 10
133.039012592
 20
145.535069124
 30
0.0
 11
129.113737659
 21
146.114703296
 31
0.0
  0
LINE
  5
E6
330
20
100
AcDbEntity
  8
0
  6
Continuous
 62
     4
100
AcDbLine
 10
133.539017504
 20
148.156186662
 30
0.0
 11
129.6760115999999
 21
149.062246516
 31
0.0
  0
LINE
  5
E7
330
20
100
AcDbEntity
  8
0
  6
Continuous
 62
     4
100
AcDbLine
 10
135.186721638
 20
153.227298552
 30
0.0
 11
131.528915593
 21
154.764898631
 31
0.0
  0
LINE
  5
E8
330
20
100
AcDbEntity
  8
0
  6
Continuous
 62
     4
100
AcDbLine
 10
136.322863401
 20
155.641722697
 30
0.0
 11
132.806548854
 21
157.4800075179999
 31
0.0
  0
LINE
  5
E9
330
20
100
AcDbEntity
  8
0
  6
Continuous
 62
     4
100
AcDbLine
 10
137.65705436
 20
157.952609225
 30
0.0
 11
134.306895733
 21
160.07868454
 31
0.0
  0
LINE
  5
EA
330
20
100
AcDbEntity
  8
0
  6
Continuous
 62
     4
100
AcDbLine
 10
139.179936124
 20
160.143748927
 30
0.0
 11
136.019432372
 21
162.542701845
 31
0.0
  0
LINE
  5
EB
330
20
100
AcDbEntity
  8
0
  6
Continuous
 62
     4
100
AcDbLine
 10
142.747795779
 20
164.106258511
 30
0.0
 11
140.031621976
 21
166.998689831
 31
0.0
  0
LINE
  5
EC
330
20
100
AcDbEntity
  8
0
  6
Continuous
 62
     4
100
AcDbLine
 10
144.767747698
 20
165.849834235
 30
0.0
 11
142.303132313
 21
168.959404958
 31
0.0
  0
LINE
  5
ED
330
20
100
AcDbEntity
  8
0
  6
Continuous
 62
     4
100
AcDbLine
 10
146.926514017
 20
167.418269774
 30
0.0
 11
144.730744557
 21
170.723168494
 31
0.0
  0
LINE
  5
EE
330
20
100
AcDbEntity
  8
0
  6
Continuous
 62
     4
100
AcDbLine
 10
149.208952542
 20
168.800563679
 30
0.0
 11
147.297430752
 21
172.277608907
 31
0.0
  0
LINE
  5
EF
330
20
100
AcDbEntity
  8
0
  6
Continuous
 62
     4
100
AcDbLine
 10
154.080052369
 20
170.969317051
 30
0.0
 11
152.775161934
 21
174.71645196
 31
0.0
  0
LINE
  5
F0
330
20
100
AcDbEntity
  8
0
  6
Continuous
 62
     4
100
AcDbLine
 10
156.634546406
 20
171.740564272
 30
0.0
 11
155.647784573
 21
175.583747868
 31
0.0
  0
LINE
  5
F1
330
20
100
AcDbEntity
  8
0
  6
Continuous
 62
     4
100
AcDbLine
 10
159.244617777
 20
172.295352068
 30
0.0
 11
158.582905972
 21
176.207627181
 31
0.0
  0
LINE
  5
F2
330
20
100
AcDbEntity
  8
0
  6
Continuous
 62
     4
100
AcDbLine
 10
161.891958706
 20
172.629789002
 30
0.0
 11
161.559938362
 21
176.583713832
 31
0.0
  0
LINE
  5
F3
330
20
100
AcDbEntity
  8
0
  6
Continuous
 62
     4
100
AcDbLine
 10
167.224041294
 20
172.629789002
 30
0.0
 11
167.556061638
 21
176.583713832
 31
0.0
  0
LINE
  5
F4
330
20
100
AcDbEntity
  8
0
  6
Continuous
 62
     4
100
AcDbLine
 10
169.871382223
 20
172.295352068
 30
0.0
 11
170.533094028
 21
176.207627181
 31
0.0
  0
LINE
  5
F5
330
20
100
AcDbEntity
  8
0
  6
Continuous
 62
     4
100
AcDbLine
 10
172.481453594
 20
171.740564272
 30
0.0
 11
173.468215427
 21
175.583747868
 31
0.0
  0
LINE
  5
F6
330
20
100
AcDbEntity
  8
0
  6
Continuous
 62
     4
100
AcDbLine
 10
175.0359476309999
 20
170.969317051
 30
0.0
 11
176.340838066
 21
174.71645196
 31
0.0
  0
LINE
  5
F7
330
20
100
AcDbEntity
  8
0
  6
Continuous
 62
     4
100
AcDbLine
 10
179.907047458
 20
168.800563679
 30
0.0
 11
181.818569248
 21
172.277608907
 31
0.0
  0
LINE
  5
F8
330
20
100
AcDbEntity
  8
0
  6
Continuous
 62
     4
100
AcDbLine
 10
182.189485983
 20
167.418269774
 30
0.0
 11
184.385255443
 21
170.723168494
 31
0.0
  0
LINE
  5
F9
330
20
100
AcDbEntity
  8
0
  6
Continuous
 62
     4
100
AcDbLine
 10
184.348252302
 20
165.849834235
 30
0.0
 11
186.812867687
 21
168.959404958
 31
0.0
  0
LINE
  5
FA
330
20
100
AcDbEntity
  8
0
  6
Continuous
 62
     4
100
AcDbLine
 10
186.3682042209999
 20
164.106258511
 30
0.0
 11
189.084378024
 21
166.998689831
 31
0.0
  0
LINE
  5
FB
330
20
100
AcDbEntity
  8
0
  6
Continuous
 62
     4
100
AcDbLine
 10
189.936063876
 20
160.143748927
 30
0.0
 11
193.096567628
 21
162.542701845
 31
0.0
  0
LINE
  5
FC
330
20
100
AcDbEntity
  8
0
  6
Continuous
 62
     4
100
AcDbLine
 10
191.45894564
 20
157.952609225
 30
0.0
 11
194.809104267
 21
160.07868454
 31
0.0
  0
LINE
  5
FD
330
20
100
AcDbEntity
  8
0
  6
Continuous
 62
     4
100
AcDbLine
 10
192.793136599
 20
155.641722697
 30
0.0
 11
196.3094511459999
 21
157.4800075179999
 31
0.0
  0
LINE
  5
FE
330
20
100
AcDbEntity
  8
0
  6
Continuous
 62
     4
100
AcDbLine
 10
193.929278362
 20
153.227298552
 30
0.0
 11
197.587084407
 21
154.764898631
 31
0.0
  0
LINE
  5
FF
330
20
100
AcDbEntity
  8
0
  6
Continuous
 62
     4
100
AcDbLine
 10
195.5769824959999
 20
148.156186662
 30
0.0
 11
199.4399884
 21
149.062246516
 31
0.0
  0
LINE
  5
100
330
20
100
AcDbEntity
  8
0
  6
Continuous
 62
     4
100
AcDbLine
 10
196.076987408
 20
145.535069124
 30
0.0
 11
200.002262341
 21
146.114703296
 31
0.0
  0
LINE
  5
101
330
20
100
AcDbEntity
  8
0
  6
Continuous
 62
     4
100
AcDbLine
 10
196.355909269
 20
142.881304881
 30
0.0
 11
200.315920248
 21
143.130447654
 31
0.0
  0
LINE
  5
102
330
20
100
AcDbEntity
  8
0
  6
Continuous
 62
     4
100
AcDbLine
 10
196.411791644
 20
140.213508183
 30
0.0
 11
200.378762037
 21
140.1304119989999
 31
0.0
  0
LINE
  5
103
330
20
100
AcDbEntity
  8
0
  6
Continuous
 62
     4
100
AcDbLine
 10
195.854437245
 20
134.910635302
 30
0.0
 11
199.751996485
 21
134.167136114
 31
0.0
  0
LINE
  5
104
330
20
100
AcDbEntity
  8
0
  6
Continuous
 62
     4
100
AcDbLine
 10
195.245109912
 20
132.312754962
 30
0.0
 11
199.066785455
 21
131.245723978
 31
0.0
  0
LINE
  5
105
330
20
100
AcDbEntity
  8
0
  6
Continuous
 62
     4
100
AcDbLine
 10
194.420534552
 20
129.774972951
 30
0.0
 11
198.139520089
 21
128.391894628
 31
0.0
  0
LINE
  5
106
330
20
100
AcDbEntity
  8
0
  6
Continuous
 62
     4
100
AcDbLine
 10
193.386494968
 20
127.315089987
 30
0.0
 11
196.976704488
 21
125.625665625
 31
0.0
  0
TEXT
  5
107
330
20
100
AcDbEntity
  8
0
  6
Continuous
 62
     4
100
AcDbText
 10
137.2438
 20
146.897
 30
0.0
 40
4.9
  1
２０
 41
0.7653061220000001
  7
KANJI0
100
AcDbText
  0
TEXT
  5
108
330
20
100
AcDbEntity
  8
0
  6
Continuous
 62
     4
100
AcDbText
 10
149.9438
 20
162.197
 30
0.0
 40
4.9
  1
４０
 41
0.7653061220000001
  7
KANJI0
100
AcDbText
  0
TEXT
  5
109
330
20
100
AcDbEntity
  8
0
  6
Continuous
 62
     4
100
AcDbText
 10
171.5438
 20
161.297
 30
0.0
 40
4.9
  1
６０
 41
0.7653061220000001
  7
KANJI0
100
AcDbText
  0
TEXT
  5
10A
330
20
100
AcDbEntity
  8
0
  6
Continuous
 62
     4
100
AcDbText
 10
185.4438
 20
146.097
 30
0.0
 40
4.9
  1
８０
 41
0.7653061220000001
  7
KANJI0
100
AcDbText
  0
TEXT
  5
10B
330
20
100
AcDbEntity
  8
0
  6
Continuous
 62
     4
100
AcDbText
 10
181.0438
 20
126.277
 30
0.0
 40
4.41
  1
１００
 41
0.7653061220000001
  7
KANJI1
100
AcDbText
  0
TEXT
  5
10C
330
20
100
AcDbEntity
  8
0
  6
Continuous
 62
     4
100
AcDbText
 10
160.2438
 20
121.597
 30
0.0
 40
4.799999999999999
  1
Ｌ／ｈ
 41
0.8402777779999999
  7
KANJI2
100
AcDbText
  0
LINE
  5
10D
330
20
100
AcDbEntity
  8
2
  6
Continuous
 62
     4
100
AcDbLine
 10
203.258
 20
260.98075
 30
0.0
 11
214.158
 21
260.98075
 31
0.0
  0
LINE
  5
10E
330
20
100
AcDbEntity
  8
2
  6
Continuous
 62
     4
100
AcDbLine
 10
213.158
 20
260.98075
 30
0.0
 11
213.805047613
 21
263.3955645659999
 31
0.0
  0
LINE
  5
10F
330
20
100
AcDbEntity
  8
2
  6
Continuous
 62
     4
100
AcDbLine
 10
213.158
 20
260.98075
 30
0.0
 11
212.510952387
 21
263.3955645659999
 31
0.0
  0
LINE
  5
110
330
20
100
AcDbEntity
  8
2
  6
Continuous
 62
     4
100
AcDbLine
 10
213.158
 20
260.98075
 30
0.0
 11
213.158
 21
292.98075
 31
0.0
  0
LINE
  5
111
330
20
100
AcDbEntity
  8
2
  6
Continuous
 62
     4
100
AcDbLine
 10
213.158
 20
292.98075
 30
0.0
 11
212.510952387
 21
290.565935434
 31
0.0
  0
LINE
  5
112
330
20
100
AcDbEntity
  8
2
  6
Continuous
 62
     4
100
AcDbLine
 10
213.158
 20
292.98075
 30
0.0
 11
213.805047613
 21
290.565935434
 31
0.0
  0
LINE
  5
113
330
20
100
AcDbEntity
  8
2
  6
Continuous
 62
     4
100
AcDbLine
 10
201.058
 20
292.98075
 30
0.0
 11
214.158
 21
292.98075
 31
0.0
  0
LINE
  5
114
330
20
100
AcDbEntity
  8
2
  6
Continuous
 62
     4
100
AcDbLine
 10
213.158
 20
260.98075
 30
0.0
 11
212.510952387
 21
258.5659354340001
 31
0.0
  0
LINE
  5
115
330
20
100
AcDbEntity
  8
2
  6
Continuous
 62
     4
100
AcDbLine
 10
213.158
 20
260.98075
 30
0.0
 11
213.805047613
 21
258.5659354340001
 31
0.0
  0
LWPOLYLINE
  5
116
330
20
100
AcDbEntity
  8
2
  6
Continuous
 62
     4
100
AcDbPolyline
 90
        3
 70
     0
 43
0.0
 10
213.158
 20
260.98075
 10
213.158
 20
228.98075
 10
213.805047613
 20
231.395564566
  0
LINE
  5
11B
330
20
100
AcDbEntity
  8
2
  6
Continuous
 62
     4
100
AcDbLine
 10
213.158
 20
228.98075
 30
0.0
 11
212.510952387
 21
231.395564566
 31
0.0
  0
LINE
  5
11C
330
20
100
AcDbEntity
  8
2
  6
Continuous
 62
     4
100
AcDbLine
 10
201.058
 20
228.98075
 30
0.0
 11
214.158
 21
228.98075
 31
0.0
  0
LINE
  5
11D
330
20
100
AcDbEntity
  8
2
  6
Continuous
 62
     4
100
AcDbLine
 10
164.558
 20
299.38075
 30
0.0
 11
164.558
 21
314.38075
 31
0.0
  0
LINE
  5
11E
330
20
100
AcDbEntity
  8
2
  6
Continuous
 62
     4
100
AcDbLine
 10
164.558
 20
313.38075
 30
0.0
 11
166.972814566
 21
312.733702387
 31
0.0
  0
LINE
  5
11F
330
20
100
AcDbEntity
  8
2
  6
Continuous
 62
     4
100
AcDbLine
 10
164.558
 20
313.38075
 30
0.0
 11
166.972814566
 21
314.027797613
 31
0.0
  0
LINE
  5
120
330
20
100
AcDbEntity
  8
2
  6
Continuous
 62
     4
100
AcDbLine
 10
164.558
 20
313.38075
 30
0.0
 11
196.558
 21
313.38075
 31
0.0
  0
LINE
  5
121
330
20
100
AcDbEntity
  8
2
  6
Continuous
 62
     4
100
AcDbLine
 10
196.558
 20
313.38075
 30
0.0
 11
194.143185434
 21
314.027797613
 31
0.0
  0
LINE
  5
122
330
20
100
AcDbEntity
  8
2
  6
Continuous
 62
     4
100
AcDbLine
 10
196.558
 20
313.38075
 30
0.0
 11
194.143185434
 21
312.733702387
 31
0.0
  0
LINE
  5
123
330
20
100
AcDbEntity
  8
2
  6
Continuous
 62
     4
100
AcDbLine
 10
196.558
 20
297.48075
 30
0.0
 11
196.558
 21
314.38075
 31
0.0
  0
LINE
  5
124
330
20
100
AcDbEntity
  8
2
  6
Continuous
 62
     4
100
AcDbLine
 10
164.558
 20
313.38075
 30
0.0
 11
162.143185434
 21
314.027797613
 31
0.0
  0
LINE
  5
125
330
20
100
AcDbEntity
  8
2
  6
Continuous
 62
     4
100
AcDbLine
 10
164.558
 20
313.38075
 30
0.0
 11
162.143185434
 21
312.733702387
 31
0.0
  0
LWPOLYLINE
  5
126
330
20
100
AcDbEntity
  8
2
  6
Continuous
 62
     4
100
AcDbPolyline
 90
        3
 70
     0
 43
0.0
 10
164.558
 20
313.38075
 10
132.558
 20
313.38075
 10
134.972814566
 20
312.733702387
  0
LINE
  5
12B
330
20
100
AcDbEntity
  8
2
  6
Continuous
 62
     4
100
AcDbLine
 10
132.558
 20
313.38075
 30
0.0
 11
134.972814566
 21
314.027797613
 31
0.0
  0
LINE
  5
12C
330
20
100
AcDbEntity
  8
2
  6
Continuous
 62
     4
100
AcDbLine
 10
132.558
 20
297.48075
 30
0.0
 11
132.558
 21
314.38075
 31
0.0
  0
LINE
  5
12D
330
20
100
AcDbEntity
  8
2
  6
Continuous
 62
     4
100
AcDbLine
 10
193.863646881
 20
277.211247863
 30
0.0
 11
191.437688438
 21
276.607322675
 31
0.0
  0
LINE
  5
12E
330
20
100
AcDbEntity
  8
2
  6
Continuous
 62
     4
100
AcDbLine
 10
193.863646881
 20
277.211247863
 30
0.0
 11
192.064667835
 21
275.475254087
 31
0.0
  0
LWPOLYLINE
  5
12F
330
20
100
AcDbEntity
  8
2
  6
Continuous
 62
     4
100
AcDbPolyline
 90
        3
 70
     0
 43
0.0
 10
193.863646881
 20
277.211247863
 10
135.252353119
 20
244.750252137
 10
137.678311562
 20
245.354177325
  0
LINE
  5
134
330
20
100
AcDbEntity
  8
2
  6
Continuous
 62
     4
100
AcDbLine
 10
135.252353119
 20
244.750252137
 30
0.0
 11
137.051332165
 21
246.486245913
 31
0.0
  0
LINE
  5
135
330
20
100
AcDbEntity
  8
2
  6
Continuous
 62
     4
100
AcDbLine
 10
133.7579999999999
 20
227.08075
 30
0.0
 11
134.114511462
 21
224.606300652
 31
0.0
  0
LINE
  5
136
330
20
100
AcDbEntity
  8
2
  6
Continuous
 62
     4
100
AcDbLine
 10
133.7579999999999
 20
227.08075
 30
0.0
 11
135.303972657
 21
225.116069735
 31
0.0
  0
LINE
  5
137
330
20
100
AcDbEntity
  8
2
  6
Continuous
 62
     4
100
AcDbLine
 10
133.7579999999999
 20
227.08075
 30
0.0
 11
142.158
 21
207.48075
 31
0.0
  0
TEXT
  5
138
330
20
100
AcDbEntity
  8
2
  6
Continuous
 62
     4
100
AcDbText
 10
212.158
 20
272.83075
 30
0.3
 40
6.0
  1
３２
 50
90.0
  7
KANJI3
100
AcDbText
  0
TEXT
  5
139
330
20
100
AcDbEntity
  8
2
  6
Continuous
 62
     4
100
AcDbText
 10
212.158
 20
240.83075
 30
0.3
 40
6.0
  1
３２
 50
90.0
  7
KANJI3
100
AcDbText
  0
TEXT
  5
13A
330
20
100
AcDbEntity
  8
2
  6
Continuous
 62
     4
100
AcDbText
 10
176.408
 20
314.38075
 30
0.3
 40
6.0
  1
３２
  7
KANJI3
100
AcDbText
  0
TEXT
  5
13B
330
20
100
AcDbEntity
  8
2
  6
Continuous
 62
     4
100
AcDbText
 10
144.408
 20
314.38075
 30
0.3
 40
6.0
  1
３２
  7
KANJI3
100
AcDbText
  0
TEXT
  5
13C
330
20
100
AcDbEntity
  8
2
  6
Continuous
 62
     4
100
AcDbText
 10
142.158
 20
208.48075
 30
0.3
 40
6.0
  1
４－φ４
  7
KANJI3
100
AcDbText
  0
TEXT
  5
13D
330
20
100
AcDbEntity
  8
2
  6
Continuous
 62
     4
100
AcDbText
 10
174.266783722
 20
267.500940263
 30
0.3
 40
6.0
  1
φ６７
 50
28.979226007
  7
KANJI3
100
AcDbText
  0
LINE
  5
13E
330
20
100
AcDbEntity
  8
2
  6
Continuous
 62
     4
100
AcDbLine
 10
142.158
 20
207.48075
 30
0.3
 11
166.558
 21
207.48075
 31
0.3
  0
TEXT
  5
13F
330
20
100
AcDbEntity
  8
2
  6
Continuous
 62
     4
100
AcDbText
 10
138.178
 20
328.26075
 30
2.351999999999999
 40
6.36
  1
パネルカット
  7
KANJI4
100
AcDbText
  0
TEXT
  5
140
330
20
100
AcDbEntity
  8
2
  6
Continuous
 62
     4
100
AcDbText
 10
72.30209999999999
 20
369.3959625
 30
0.0
 40
8.793749999999999
  1
形　名　　：　ＴＭＷ－２５
 41
0.7174129350000001
  7
KANJI5
100
AcDbText
  0
LINE
  5
141
330
20
100
AcDbEntity
  8
0
  6
Continuous
 62
     3
100
AcDbLine
 10
332.158
 20
140.88075
 30
0.0
 11
332.158
 21
180.88075
 31
0.0
  0
LINE
  5
142
330
20
100
AcDbEntity
  8
0
  6
Continuous
 62
     3
100
AcDbLine
 10
332.158
 20
180.88075
 30
0.0
 11
323.158
 21
180.88075
 31
0.0
  0
LINE
  5
143
330
20
100
AcDbEntity
  8
0
  6
Continuous
 62
     3
100
AcDbLine
 10
323.158
 20
180.88075
 30
0.0
 11
323.158
 21
140.88075
 31
0.0
  0
LINE
  5
144
330
20
100
AcDbEntity
  8
0
  6
Continuous
 62
     3
100
AcDbLine
 10
332.158
 20
140.88075
 30
0.0
 11
332.158
 21
100.88075
 31
0.0
  0
LINE
  5
145
330
20
100
AcDbEntity
  8
0
  6
Continuous
 62
     3
100
AcDbLine
 10
332.158
 20
100.88075
 30
0.0
 11
323.158
 21
100.88075
 31
0.0
  0
LINE
  5
146
330
20
100
AcDbEntity
  8
0
  6
Continuous
 62
     3
100
AcDbLine
 10
323.158
 20
100.88075
 30
0.0
 11
323.158
 21
140.88075
 31
0.0
  0
ARC
  5
147
330
20
100
AcDbEntity
  8
0
  6
Continuous
 62
     3
100
AcDbCircle
 10
437.973141594
 20
140.864245889
 30
0.0
 40
121.81401806
100
AcDbArc
 50
161.199987632
 51
198.7540660209999
  0
ARC
  5
148
330
20
100
AcDbEntity
  8
0
  6
Continuous
 62
     3
100
AcDbCircle
 10
323.158
 20
179.88075
 30
0.0
 40
0.583095189
100
AcDbArc
 50
89.99958278900001
 51
154.358994176
  0
ARC
  5
149
330
20
100
AcDbEntity
  8
0
  6
Continuous
 62
     3
100
AcDbCircle
 10
323.158
 20
101.88075
 30
0.0
 40
0.583095189
100
AcDbArc
 50
198.761790588
 51
270.000322459
  0
LINE
  5
14A
330
20
100
AcDbEntity
  8
0
  6
Continuous
 62
     3
100
AcDbLine
 10
378.158
 20
140.88075
 30
0.0
 11
378.158
 21
172.38075
 31
0.0
  0
ARC
  5
14B
330
20
100
AcDbEntity
  8
0
  6
Continuous
 62
     3
100
AcDbCircle
 10
377.158
 20
172.38075
 30
0.0
 40
1.0
100
AcDbArc
 50
0.0
 51
90.0
  0
LINE
  5
14C
330
20
100
AcDbEntity
  8
0
  6
Continuous
 62
     3
100
AcDbLine
 10
378.158
 20
140.88075
 30
0.0
 11
378.158
 21
109.38075
 31
0.0
  0
ARC
  5
14D
330
20
100
AcDbEntity
  8
0
  6
Continuous
 62
     3
100
AcDbCircle
 10
377.158
 20
109.38075
 30
0.0
 40
1.0
100
AcDbArc
 50
270.0
 51
0.0
  0
ARC
  5
14E
330
20
100
AcDbEntity
  8
0
  6
Continuous
 62
     3
100
AcDbCircle
 10
313.558
 20
222.98075
 30
0.0
 40
2.0
100
AcDbArc
 50
180.0
 51
270.0
  0
LINE
  5
14F
330
20
100
AcDbEntity
  8
0
  6
Continuous
 62
     3
100
AcDbLine
 10
313.558
 20
220.98075
 30
0.0
 11
389.5580000000001
 21
220.98075
 31
0.0
  0
ARC
  5
150
330
20
100
AcDbEntity
  8
0
  6
Continuous
 62
     3
100
AcDbCircle
 10
389.5580000000001
 20
222.98075
 30
0.0
 40
2.0
100
AcDbArc
 50
270.0
 51
0.0
  0
LINE
  5
151
330
20
100
AcDbEntity
  8
0
  6
Continuous
 62
     3
100
AcDbLine
 10
391.5580000000001
 20
222.98075
 30
0.0
 11
391.5580000000001
 21
298.98075
 31
0.0
  0
ARC
  5
152
330
20
100
AcDbEntity
  8
0
  6
Continuous
 62
     3
100
AcDbCircle
 10
389.5580000000001
 20
298.98075
 30
0.0
 40
2.0
100
AcDbArc
 50
0.0
 51
90.0
  0
LINE
  5
153
330
20
100
AcDbEntity
  8
0
  6
Continuous
 62
     3
100
AcDbLine
 10
389.5580000000001
 20
300.98075
 30
0.0
 11
313.558
 21
300.98075
 31
0.0
  0
ARC
  5
154
330
20
100
AcDbEntity
  8
0
  6
Continuous
 62
     3
100
AcDbCircle
 10
313.558
 20
298.98075
 30
0.0
 40
2.0
100
AcDbArc
 50
90.0
 51
180.0
  0
LINE
  5
155
330
20
100
AcDbEntity
  8
0
  6
Continuous
 62
     3
100
AcDbLine
 10
311.558
 20
298.98075
 30
0.0
 11
311.558
 21
222.98075
 31
0.0
  0
ARC
  5
156
330
20
100
AcDbEntity
  8
0
  6
Continuous
 62
     3
100
AcDbCircle
 10
388.558
 20
297.98075
 30
0.0
 40
1.0
100
AcDbArc
 50
0.0
 51
90.0
  0
LINE
  5
157
330
20
100
AcDbEntity
  8
0
  6
Continuous
 62
     3
100
AcDbLine
 10
388.558
 20
298.98075
 30
0.0
 11
314.558
 21
298.98075
 31
0.0
  0
ARC
  5
158
330
20
100
AcDbEntity
  8
0
  6
Continuous
 62
     3
100
AcDbCircle
 10
314.558
 20
297.98075
 30
0.0
 40
1.0
100
AcDbArc
 50
90.0
 51
180.0
  0
LINE
  5
159
330
20
100
AcDbEntity
  8
0
  6
Continuous
 62
     3
100
AcDbLine
 10
313.558
 20
297.98075
 30
0.0
 11
313.558
 21
223.98075
 31
0.0
  0
ARC
  5
15A
330
20
100
AcDbEntity
  8
0
  6
Continuous
 62
     3
100
AcDbCircle
 10
314.558
 20
223.98075
 30
0.0
 40
1.0
100
AcDbArc
 50
180.0
 51
270.0
  0
LINE
  5
15B
330
20
100
AcDbEntity
  8
0
  6
Continuous
 62
     3
100
AcDbLine
 10
389.5580000000001
 20
223.98075
 30
0.0
 11
389.5580000000001
 21
297.98075
 31
0.0
  0
LINE
  5
15C
330
20
100
AcDbEntity
  8
0
  6
Continuous
 62
     3
100
AcDbLine
 10
314.558
 20
222.98075
 30
0.0
 11
388.558
 21
222.98075
 31
0.0
  0
ARC
  5
15D
330
20
100
AcDbEntity
  8
0
  6
Continuous
 62
     3
100
AcDbCircle
 10
388.558
 20
223.98075
 30
0.0
 40
1.0
100
AcDbArc
 50
270.0
 51
0.0
  0
CIRCLE
  5
15E
330
20
100
AcDbEntity
  8
0
  6
Continuous
 62
     3
100
AcDbCircle
 10
351.558
 20
260.98075
 30
0.0
 40
32.5
  0
CIRCLE
  5
15F
330
20
100
AcDbEntity
  8
0
  6
Continuous
 62
     3
100
AcDbCircle
 10
351.558
 20
288.48075
 30
0.0
 40
3.2
  0
LINE
  5
160
330
20
100
AcDbEntity
  8
0
  6
Continuous
 62
     3
100
AcDbLine
 10
349.7580000000001
 20
288.18075
 30
0.0
 11
349.7580000000001
 21
288.78075
 31
0.0
  0
LINE
  5
161
330
20
100
AcDbEntity
  8
0
  6
Continuous
 62
     3
100
AcDbLine
 10
351.258
 20
290.28075
 30
0.0
 11
351.858
 21
290.28075
 31
0.0
  0
LINE
  5
162
330
20
100
AcDbEntity
  8
0
  6
Continuous
 62
     3
100
AcDbLine
 10
353.358
 20
288.18075
 30
0.0
 11
353.358
 21
288.78075
 31
0.0
  0
LINE
  5
163
330
20
100
AcDbEntity
  8
0
  6
Continuous
 62
     3
100
AcDbLine
 10
351.258
 20
286.68075
 30
0.0
 11
351.858
 21
286.68075
 31
0.0
  0
LINE
  5
164
330
20
100
AcDbEntity
  8
0
  6
Continuous
 62
     3
100
AcDbLine
 10
353.358
 20
288.18075
 30
0.0
 11
352.758
 21
288.18075
 31
0.0
  0
LINE
  5
165
330
20
100
AcDbEntity
  8
0
  6
Continuous
 62
     3
100
AcDbLine
 10
351.858
 20
286.68075
 30
0.0
 11
351.858
 21
287.28075
 31
0.0
  0
LINE
  5
166
330
20
100
AcDbEntity
  8
0
  6
Continuous
 62
     3
100
AcDbLine
 10
351.258
 20
286.68075
 30
0.0
 11
351.258
 21
287.28075
 31
0.0
  0
LINE
  5
167
330
20
100
AcDbEntity
  8
0
  6
Continuous
 62
     3
100
AcDbLine
 10
349.7580000000001
 20
288.78075
 30
0.0
 11
350.358
 21
288.78075
 31
0.0
  0
LINE
  5
168
330
20
100
AcDbEntity
  8
0
  6
Continuous
 62
     3
100
AcDbLine
 10
351.858
 20
290.28075
 30
0.0
 11
351.858
 21
289.68075
 31
0.0
  0
LINE
  5
169
330
20
100
AcDbEntity
  8
0
  6
Continuous
 62
     3
100
AcDbLine
 10
353.358
 20
288.18075
 30
0.0
 11
352.758
 21
288.18075
 31
0.0
  0
LINE
  5
16A
330
20
100
AcDbEntity
  8
0
  6
Continuous
 62
     3
100
AcDbLine
 10
353.358
 20
288.78075
 30
0.0
 11
352.758
 21
288.78075
 31
0.0
  0
LINE
  5
16B
330
20
100
AcDbEntity
  8
0
  6
Continuous
 62
     3
100
AcDbLine
 10
351.258
 20
290.28075
 30
0.0
 11
351.258
 21
289.68075
 31
0.0
  0
LINE
  5
16C
330
20
100
AcDbEntity
  8
0
  6
Continuous
 62
     3
100
AcDbLine
 10
349.7580000000001
 20
288.18075
 30
0.0
 11
350.358
 21
288.18075
 31
0.0
  0
ARC
  5
16D
330
20
100
AcDbEntity
  8
0
  6
Continuous
 62
     3
100
AcDbCircle
 10
352.658
 20
289.58075
 30
0.0
 40
0.8
100
AcDbArc
 50
172.3
 51
277.7
  0
ARC
  5
16E
330
20
100
AcDbEntity
  8
0
  6
Continuous
 62
     3
100
AcDbCircle
 10
350.458
 20
289.58075
 30
0.0
 40
0.8
100
AcDbArc
 50
262.3
 51
7.699999999999999
  0
ARC
  5
16F
330
20
100
AcDbEntity
  8
0
  6
Continuous
 62
     3
100
AcDbCircle
 10
350.458
 20
287.38075
 30
0.0
 40
0.8
100
AcDbArc
 50
352.3
 51
97.70000000000001
  0
ARC
  5
170
330
20
100
AcDbEntity
  8
0
  6
Continuous
 62
     3
100
AcDbCircle
 10
352.658
 20
287.38075
 30
0.0
 40
0.8
100
AcDbArc
 50
82.3
 51
187.7
  0
ARC
  5
171
330
20
100
AcDbEntity
  8
0
  6
Continuous
 62
     3
100
AcDbCircle
 10
343.8686018759999
 20
287.123136964
 30
0.0
 40
3.0
100
AcDbArc
 50
10.012752123
 51
106.390469812
  0
ARC
  5
172
330
20
100
AcDbEntity
  8
0
  6
Continuous
 62
     3
100
AcDbCircle
 10
359.247398124
 20
287.123136964
 30
0.0
 40
3.0
100
AcDbArc
 50
73.609530188
 51
169.987247877
  0
ARC
  5
173
330
20
100
AcDbEntity
  8
0
  6
Continuous
 62
     3
100
AcDbCircle
 10
351.558
 20
288.48075
 30
0.0
 40
4.808326111999999
100
AcDbArc
 50
190.012752123
 51
349.9872478769999
  0
CIRCLE
  5
174
330
20
100
AcDbEntity
  8
0
  6
Continuous
 62
     3
100
AcDbCircle
 10
327.742301396
 20
247.23075
 30
0.0
 40
3.2
  0
LINE
  5
175
330
20
100
AcDbEntity
  8
0
  6
Continuous
 62
     3
100
AcDbLine
 10
328.902109017
 20
245.821904273
 30
0.0
 11
328.382493775
 21
245.521904273
 31
0.0
  0
LINE
  5
176
330
20
100
AcDbEntity
  8
0
  6
Continuous
 62
     3
100
AcDbLine
 10
326.333455669
 20
246.070942379
 30
0.0
 11
326.0334556690001
 21
246.590557621
 31
0.0
  0
LINE
  5
177
330
20
100
AcDbEntity
  8
0
  6
Continuous
 62
     3
100
AcDbLine
 10
327.102109017
 20
248.939595727
 30
0.0
 11
326.582493775
 21
248.639595727
 31
0.0
  0
LINE
  5
178
330
20
100
AcDbEntity
  8
0
  6
Continuous
 62
     3
100
AcDbLine
 10
329.451147123
 20
247.870942379
 30
0.0
 11
329.151147123
 21
248.390557621
 31
0.0
  0
LINE
  5
179
330
20
100
AcDbEntity
  8
0
  6
Continuous
 62
     3
100
AcDbLine
 10
327.102109017
 20
248.939595727
 30
0.0
 11
327.402109017
 21
248.419980485
 31
0.0
  0
LINE
  5
17A
330
20
100
AcDbEntity
  8
0
  6
Continuous
 62
     3
100
AcDbLine
 10
329.151147123
 20
248.390557621
 30
0.0
 11
328.63153188
 21
248.090557621
 31
0.0
  0
LINE
  5
17B
330
20
100
AcDbEntity
  8
0
  6
Continuous
 62
     3
100
AcDbLine
 10
329.451147123
 20
247.870942379
 30
0.0
 11
328.93153188
 21
247.570942379
 31
0.0
  0
LINE
  5
17C
330
20
100
AcDbEntity
  8
0
  6
Continuous
 62
     3
100
AcDbLine
 10
328.382493775
 20
245.521904273
 30
0.0
 11
328.082493775
 21
246.041519515
 31
0.0
  0
LINE
  5
17D
330
20
100
AcDbEntity
  8
0
  6
Continuous
 62
     3
100
AcDbLine
 10
326.0334556690001
 20
246.590557621
 30
0.0
 11
326.553070911
 21
246.890557621
 31
0.0
  0
LINE
  5
17E
330
20
100
AcDbEntity
  8
0
  6
Continuous
 62
     3
100
AcDbLine
 10
327.102109017
 20
248.939595727
 30
0.0
 11
327.402109017
 21
248.419980485
 31
0.0
  0
LINE
  5
17F
330
20
100
AcDbEntity
  8
0
  6
Continuous
 62
     3
100
AcDbLine
 10
326.582493775
 20
248.639595727
 30
0.0
 11
326.882493775
 21
248.119980485
 31
0.0
  0
LINE
  5
180
330
20
100
AcDbEntity
  8
0
  6
Continuous
 62
     3
100
AcDbLine
 10
326.333455669
 20
246.070942379
 30
0.0
 11
326.853070911
 21
246.370942379
 31
0.0
  0
LINE
  5
181
330
20
100
AcDbEntity
  8
0
  6
Continuous
 62
     3
100
AcDbLine
 10
328.902109017
 20
245.821904273
 30
0.0
 11
328.602109017
 21
246.341519515
 31
0.0
  0
ARC
  5
182
330
20
100
AcDbEntity
  8
0
  6
Continuous
 62
     3
100
AcDbCircle
 10
326.239673452
 20
247.633377944
 30
0.0
 40
0.8
100
AcDbArc
 50
292.3
 51
37.7
  0
ARC
  5
183
330
20
100
AcDbEntity
  8
0
  6
Continuous
 62
     3
100
AcDbCircle
 10
327.339673452
 20
245.728122056
 30
0.0
 40
0.8
100
AcDbArc
 50
22.3
 51
127.7
  0
ARC
  5
184
330
20
100
AcDbEntity
  8
0
  6
Continuous
 62
     3
100
AcDbCircle
 10
329.24492934
 20
246.828122056
 30
0.0
 40
0.8
100
AcDbArc
 50
112.3
 51
217.7
  0
ARC
  5
185
330
20
100
AcDbEntity
  8
0
  6
Continuous
 62
     3
100
AcDbCircle
 10
328.14492934
 20
248.733377944
 30
0.0
 40
0.8
100
AcDbArc
 50
202.3
 51
307.7
  0
ARC
  5
186
330
20
100
AcDbEntity
  8
0
  6
Continuous
 62
     3
100
AcDbCircle
 10
332.762727836
 20
241.250342403
 30
0.0
 40
3.0
100
AcDbArc
 50
130.012752123
 51
226.390469812
  0
ARC
  5
187
330
20
100
AcDbEntity
  8
0
  6
Continuous
 62
     3
100
AcDbCircle
 10
325.073329712
 20
254.568770634
 30
0.0
 40
3.0
100
AcDbArc
 50
193.6095301879999
 51
289.987247877
  0
ARC
  5
188
330
20
100
AcDbEntity
  8
0
  6
Continuous
 62
     3
100
AcDbCircle
 10
327.742301396
 20
247.23075
 30
0.0
 40
4.808326111999999
100
AcDbArc
 50
310.012752123
 51
109.987247877
  0
CIRCLE
  5
189
330
20
100
AcDbEntity
  8
0
  6
Continuous
 62
     3
100
AcDbCircle
 10
375.373698604
 20
247.23075
 30
0.0
 40
3.2
  0
LINE
  5
18A
330
20
100
AcDbEntity
  8
0
  6
Continuous
 62
     3
100
AcDbLine
 10
376.013890983
 20
248.939595727
 30
0.0
 11
376.533506225
 21
248.639595727
 31
0.0
  0
LINE
  5
18B
330
20
100
AcDbEntity
  8
0
  6
Continuous
 62
     3
100
AcDbLine
 10
377.082544331
 20
246.590557621
 30
0.0
 11
376.782544331
 21
246.070942379
 31
0.0
  0
LINE
  5
18C
330
20
100
AcDbEntity
  8
0
  6
Continuous
 62
     3
100
AcDbLine
 10
374.213890983
 20
245.821904273
 30
0.0
 11
374.733506225
 21
245.521904273
 31
0.0
  0
LINE
  5
18D
330
20
100
AcDbEntity
  8
0
  6
Continuous
 62
     3
100
AcDbLine
 10
373.964852877
 20
248.390557621
 30
0.0
 11
373.664852877
 21
247.870942379
 31
0.0
  0
LINE
  5
18E
330
20
100
AcDbEntity
  8
0
  6
Continuous
 62
     3
100
AcDbLine
 10
374.213890983
 20
245.821904273
 30
0.0
 11
374.513890983
 21
246.341519515
 31
0.0
  0
LINE
  5
18F
330
20
100
AcDbEntity
  8
0
  6
Continuous
 62
     3
100
AcDbLine
 10
373.664852877
 20
247.870942379
 30
0.0
 11
374.18446812
 21
247.570942379
 31
0.0
  0
LINE
  5
190
330
20
100
AcDbEntity
  8
0
  6
Continuous
 62
     3
100
AcDbLine
 10
373.964852877
 20
248.390557621
 30
0.0
 11
374.48446812
 21
248.090557621
 31
0.0
  0
LINE
  5
191
330
20
100
AcDbEntity
  8
0
  6
Continuous
 62
     3
100
AcDbLine
 10
376.533506225
 20
248.639595727
 30
0.0
 11
376.233506225
 21
248.119980485
 31
0.0
  0
LINE
  5
192
330
20
100
AcDbEntity
  8
0
  6
Continuous
 62
     3
100
AcDbLine
 10
376.782544331
 20
246.070942379
 30
0.0
 11
376.262929089
 21
246.370942379
 31
0.0
  0
LINE
  5
193
330
20
100
AcDbEntity
  8
0
  6
Continuous
 62
     3
100
AcDbLine
 10
374.213890983
 20
245.821904273
 30
0.0
 11
374.513890983
 21
246.341519515
 31
0.0
  0
LINE
  5
194
330
20
100
AcDbEntity
  8
0
  6
Continuous
 62
     3
100
AcDbLine
 10
374.733506225
 20
245.521904273
 30
0.0
 11
375.033506225
 21
246.041519515
 31
0.0
  0
LINE
  5
195
330
20
100
AcDbEntity
  8
0
  6
Continuous
 62
     3
100
AcDbLine
 10
377.082544331
 20
246.590557621
 30
0.0
 11
376.562929089
 21
246.890557621
 31
0.0
  0
LINE
  5
196
330
20
100
AcDbEntity
  8
0
  6
Continuous
 62
     3
100
AcDbLine
 10
376.013890983
 20
248.939595727
 30
0.0
 11
375.713890983
 21
248.419980485
 31
0.0
  0
ARC
  5
197
330
20
100
AcDbEntity
  8
0
  6
Continuous
 62
     3
100
AcDbCircle
 10
375.776326548
 20
245.728122056
 30
0.0
 40
0.8
100
AcDbArc
 50
52.3
 51
157.7
  0
ARC
  5
198
330
20
100
AcDbEntity
  8
0
  6
Continuous
 62
     3
100
AcDbCircle
 10
376.876326548
 20
247.633377944
 30
0.0
 40
0.8
100
AcDbArc
 50
142.3
 51
247.7
  0
ARC
  5
199
330
20
100
AcDbEntity
  8
0
  6
Continuous
 62
     3
100
AcDbCircle
 10
374.97107066
 20
248.733377944
 30
0.0
 40
0.8
100
AcDbArc
 50
232.3
 51
337.7
  0
ARC
  5
19A
330
20
100
AcDbEntity
  8
0
  6
Continuous
 62
     3
100
AcDbCircle
 10
373.87107066
 20
246.828122056
 30
0.0
 40
0.8
100
AcDbArc
 50
322.3
 51
67.7
  0
ARC
  5
19B
330
20
100
AcDbEntity
  8
0
  6
Continuous
 62
     3
100
AcDbCircle
 10
378.042670288
 20
254.568770634
 30
0.0
 40
3.0
100
AcDbArc
 50
250.012752123
 51
346.390469812
  0
ARC
  5
19C
330
20
100
AcDbEntity
  8
0
  6
Continuous
 62
     3
100
AcDbCircle
 10
370.353272164
 20
241.250342403
 30
0.0
 40
3.0
100
AcDbArc
 50
313.609530188
 51
49.987247877
  0
ARC
  5
19D
330
20
100
AcDbEntity
  8
0
  6
Continuous
 62
     3
100
AcDbCircle
 10
375.373698604
 20
247.23075
 30
0.0
 40
4.808326111999999
100
AcDbArc
 50
70.012752123
 51
229.987247877
  0
ARC
  5
19E
330
20
100
AcDbEntity
  8
0
  6
Continuous
 62
     3
100
AcDbCircle
 10
351.558
 20
260.98075
 30
0.0
 40
30.249793388
100
AcDbArc
 50
106.390469812
 51
193.6095301879999
  0
ARC
  5
19F
330
20
100
AcDbEntity
  8
0
  6
Continuous
 62
     3
100
AcDbCircle
 10
351.558
 20
260.98075
 30
0.0
 40
30.249793388
100
AcDbArc
 50
346.390469812
 51
73.609530188
  0
ARC
  5
1A0
330
20
100
AcDbEntity
  8
0
  6
Continuous
 62
     3
100
AcDbCircle
 10
351.558
 20
260.98075
 30
0.0
 40
30.249793388
100
AcDbArc
 50
226.390469812
 51
313.609530188
  0
CIRCLE
  5
1A1
330
20
100
AcDbEntity
  8
0
  6
Continuous
 62
     3
100
AcDbCircle
 10
383.5580000000001
 20
292.98075
 30
0.0
 40
2.0
  0
CIRCLE
  5
1A2
330
20
100
AcDbEntity
  8
0
  6
Continuous
 62
     3
100
AcDbCircle
 10
319.558
 20
292.98075
 30
0.0
 40
2.0
  0
CIRCLE
  5
1A3
330
20
100
AcDbEntity
  8
0
  6
Continuous
 62
     3
100
AcDbCircle
 10
383.5580000000001
 20
228.98075
 30
0.0
 40
2.0
  0
CIRCLE
  5
1A4
330
20
100
AcDbEntity
  8
0
  6
Continuous
 62
     3
100
AcDbCircle
 10
319.558
 20
228.98075
 30
0.0
 40
2.0
  0
LINE
  5
1A5
330
20
100
AcDbEntity
  8
0
  6
Continuous
 62
     3
100
AcDbLine
 10
365.158
 20
276.778170968
 30
0.0
 11
365.158
 21
275.978170968
 31
0.0
  0
LINE
  5
1A6
330
20
100
AcDbEntity
  8
0
  6
Continuous
 62
     3
100
AcDbLine
 10
363.458
 20
274.278170968
 30
0.0
 11
362.658
 21
274.278170968
 31
0.0
  0
LINE
  5
1A7
330
20
100
AcDbEntity
  8
0
  6
Continuous
 62
     3
100
AcDbLine
 10
360.958
 20
275.978170968
 30
0.0
 11
360.958
 21
276.778170968
 31
0.0
  0
LINE
  5
1A8
330
20
100
AcDbEntity
  8
0
  6
Continuous
 62
     3
100
AcDbLine
 10
363.458
 20
278.478170968
 30
0.0
 11
362.658
 21
278.478170968
 31
0.0
  0
LINE
  5
1A9
330
20
100
AcDbEntity
  8
0
  6
Continuous
 62
     3
100
AcDbLine
 10
362.658
 20
274.278170968
 30
0.0
 11
362.658
 21
275.078170968
 31
0.0
  0
LINE
  5
1AA
330
20
100
AcDbEntity
  8
0
  6
Continuous
 62
     3
100
AcDbLine
 10
363.458
 20
274.278170968
 30
0.0
 11
363.458
 21
275.078170968
 31
0.0
  0
LINE
  5
1AB
330
20
100
AcDbEntity
  8
0
  6
Continuous
 62
     3
100
AcDbLine
 10
360.958
 20
275.978170968
 30
0.0
 11
361.758
 21
275.978170968
 31
0.0
  0
LINE
  5
1AC
330
20
100
AcDbEntity
  8
0
  6
Continuous
 62
     3
100
AcDbLine
 10
362.658
 20
278.478170968
 30
0.0
 11
362.658
 21
277.678170968
 31
0.0
  0
LINE
  5
1AD
330
20
100
AcDbEntity
  8
0
  6
Continuous
 62
     3
100
AcDbLine
 10
365.158
 20
276.778170968
 30
0.0
 11
364.358
 21
276.778170968
 31
0.0
  0
LINE
  5
1AE
330
20
100
AcDbEntity
  8
0
  6
Continuous
 62
     3
100
AcDbLine
 10
360.958
 20
276.778170968
 30
0.0
 11
361.758
 21
276.778170968
 31
0.0
  0
LINE
  5
1AF
330
20
100
AcDbEntity
  8
0
  6
Continuous
 62
     3
100
AcDbLine
 10
363.458
 20
278.478170968
 30
0.0
 11
363.458
 21
277.678170968
 31
0.0
  0
LINE
  5
1B0
330
20
100
AcDbEntity
  8
0
  6
Continuous
 62
     3
100
AcDbLine
 10
365.158
 20
275.978170968
 30
0.0
 11
364.358
 21
275.978170968
 31
0.0
  0
ARC
  5
1B1
330
20
100
AcDbEntity
  8
0
  6
Continuous
 62
     3
100
AcDbCircle
 10
361.858
 20
275.178170968
 30
0.0
 40
0.8
100
AcDbArc
 50
352.3
 51
97.70000000000001
  0
ARC
  5
1B2
330
20
100
AcDbEntity
  8
0
  6
Continuous
 62
     3
100
AcDbCircle
 10
361.858
 20
277.578170968
 30
0.0
 40
0.8
100
AcDbArc
 50
262.3
 51
7.699999999999999
  0
ARC
  5
1B3
330
20
100
AcDbEntity
  8
0
  6
Continuous
 62
     3
100
AcDbCircle
 10
364.2580000000001
 20
277.578170968
 30
0.0
 40
0.8
100
AcDbArc
 50
172.3
 51
277.7
  0
ARC
  5
1B4
330
20
100
AcDbEntity
  8
0
  6
Continuous
 62
     3
100
AcDbCircle
 10
364.2580000000001
 20
275.178170968
 30
0.0
 40
0.8
100
AcDbArc
 50
82.3
 51
187.7
  0
CIRCLE
  5
1B5
330
20
100
AcDbEntity
  8
0
  6
Continuous
 62
     3
100
AcDbCircle
 10
363.0580000000001
 20
276.378170968
 30
0.0
 40
4.2
  0
CIRCLE
  5
1B6
330
20
100
AcDbEntity
  8
0
  6
Continuous
 62
     3
100
AcDbCircle
 10
363.0580000000001
 20
276.378170968
 30
0.0
 40
5.0
  0
LINE
  5
1B7
330
20
100
AcDbEntity
  8
0
  6
Continuous
 62
     3
100
AcDbLine
 10
337.958
 20
276.778170968
 30
0.0
 11
337.958
 21
275.978170968
 31
0.0
  0
LINE
  5
1B8
330
20
100
AcDbEntity
  8
0
  6
Continuous
 62
     3
100
AcDbLine
 10
339.658
 20
274.278170968
 30
0.0
 11
340.458
 21
274.278170968
 31
0.0
  0
LINE
  5
1B9
330
20
100
AcDbEntity
  8
0
  6
Continuous
 62
     3
100
AcDbLine
 10
342.158
 20
275.978170968
 30
0.0
 11
342.158
 21
276.778170968
 31
0.0
  0
LINE
  5
1BA
330
20
100
AcDbEntity
  8
0
  6
Continuous
 62
     3
100
AcDbLine
 10
339.658
 20
278.478170968
 30
0.0
 11
340.458
 21
278.478170968
 31
0.0
  0
LINE
  5
1BB
330
20
100
AcDbEntity
  8
0
  6
Continuous
 62
     3
100
AcDbLine
 10
340.458
 20
274.278170968
 30
0.0
 11
340.458
 21
275.078170968
 31
0.0
  0
LINE
  5
1BC
330
20
100
AcDbEntity
  8
0
  6
Continuous
 62
     3
100
AcDbLine
 10
339.658
 20
274.278170968
 30
0.0
 11
339.658
 21
275.078170968
 31
0.0
  0
LINE
  5
1BD
330
20
100
AcDbEntity
  8
0
  6
Continuous
 62
     3
100
AcDbLine
 10
342.158
 20
275.978170968
 30
0.0
 11
341.358
 21
275.978170968
 31
0.0
  0
LINE
  5
1BE
330
20
100
AcDbEntity
  8
0
  6
Continuous
 62
     3
100
AcDbLine
 10
340.458
 20
278.478170968
 30
0.0
 11
340.458
 21
277.678170968
 31
0.0
  0
LINE
  5
1BF
330
20
100
AcDbEntity
  8
0
  6
Continuous
 62
     3
100
AcDbLine
 10
337.958
 20
276.778170968
 30
0.0
 11
338.758
 21
276.778170968
 31
0.0
  0
LINE
  5
1C0
330
20
100
AcDbEntity
  8
0
  6
Continuous
 62
     3
100
AcDbLine
 10
342.158
 20
276.778170968
 30
0.0
 11
341.358
 21
276.778170968
 31
0.0
  0
LINE
  5
1C1
330
20
100
AcDbEntity
  8
0
  6
Continuous
 62
     3
100
AcDbLine
 10
339.658
 20
278.478170968
 30
0.0
 11
339.658
 21
277.678170968
 31
0.0
  0
LINE
  5
1C2
330
20
100
AcDbEntity
  8
0
  6
Continuous
 62
     3
100
AcDbLine
 10
337.958
 20
275.978170968
 30
0.0
 11
338.758
 21
275.978170968
 31
0.0
  0
ARC
  5
1C3
330
20
100
AcDbEntity
  8
0
  6
Continuous
 62
     3
100
AcDbCircle
 10
341.2580000000001
 20
275.178170968
 30
0.0
 40
0.8
100
AcDbArc
 50
82.3
 51
187.7
  0
ARC
  5
1C4
330
20
100
AcDbEntity
  8
0
  6
Continuous
 62
     3
100
AcDbCircle
 10
341.2580000000001
 20
277.578170968
 30
0.0
 40
0.8
100
AcDbArc
 50
172.3
 51
277.7
  0
ARC
  5
1C5
330
20
100
AcDbEntity
  8
0
  6
Continuous
 62
     3
100
AcDbCircle
 10
338.858
 20
277.578170968
 30
0.0
 40
0.8
100
AcDbArc
 50
262.3
 51
7.699999999999999
  0
ARC
  5
1C6
330
20
100
AcDbEntity
  8
0
  6
Continuous
 62
     3
100
AcDbCircle
 10
338.858
 20
275.178170968
 30
0.0
 40
0.8
100
AcDbArc
 50
352.3
 51
97.70000000000001
  0
CIRCLE
  5
1C7
330
20
100
AcDbEntity
  8
0
  6
Continuous
 62
     3
100
AcDbCircle
 10
340.0580000000001
 20
276.378170968
 30
0.0
 40
4.2
  0
CIRCLE
  5
1C8
330
20
100
AcDbEntity
  8
0
  6
Continuous
 62
     3
100
AcDbCircle
 10
340.0580000000001
 20
276.378170968
 30
0.0
 40
5.0
  0
LINE
  5
1C9
330
20
100
AcDbEntity
  8
0
  6
Continuous
 62
     3
100
AcDbLine
 10
385.958
 20
159.88075
 30
0.0
 11
385.958
 21
151.88075
 31
0.0
  0
POINT
  5
1CA
330
20
100
AcDbEntity
  8
0
  6
Continuous
 62
     3
100
AcDbPoint
 10
385.958
 20
159.88075
 30
0.0
  0
ARC
  5
1CB
330
20
100
AcDbEntity
  8
0
  6
Continuous
 62
     3
100
AcDbCircle
 10
385.958
 20
157.68075
 30
0.0
 40
2.2
100
AcDbArc
 50
0.0
 51
90.0
  0
LINE
  5
1CC
330
20
100
AcDbEntity
  8
0
  6
Continuous
 62
     3
100
AcDbLine
 10
388.158
 20
157.68075
 30
0.0
 11
388.158
 21
154.08075
 31
0.0
  0
ARC
  5
1CD
330
20
100
AcDbEntity
  8
0
  6
Continuous
 62
     3
100
AcDbCircle
 10
385.958
 20
154.08075
 30
0.0
 40
2.2
100
AcDbArc
 50
270.0
 51
0.0
  0
POINT
  5
1CE
330
20
100
AcDbEntity
  8
0
  6
Continuous
 62
     3
100
AcDbPoint
 10
385.958
 20
151.88075
 30
0.0
  0
LINE
  5
1CF
330
20
100
AcDbEntity
  8
0
  6
Continuous
 62
     3
100
AcDbLine
 10
385.958
 20
159.88075
 30
0.0
 11
385.0580000000001
 21
159.88075
 31
0.0
  0
LINE
  5
1D0
330
20
100
AcDbEntity
  8
0
  6
Continuous
 62
     3
100
AcDbLine
 10
385.0580000000001
 20
159.88075
 30
0.0
 11
385.0580000000001
 21
155.88075
 31
0.0
  0
LINE
  5
1D1
330
20
100
AcDbEntity
  8
0
  6
Continuous
 62
     3
100
AcDbLine
 10
385.0580000000001
 20
159.88075
 30
0.0
 11
379.458
 21
159.88075
 31
0.0
  0
LINE
  5
1D2
330
20
100
AcDbEntity
  8
0
  6
Continuous
 62
     3
100
AcDbLine
 10
379.458
 20
155.88075
 30
0.0
 11
379.458
 21
160.38075
 31
0.0
  0
LINE
  5
1D3
330
20
100
AcDbEntity
  8
0
  6
Continuous
 62
     3
100
AcDbLine
 10
379.458
 20
160.38075
 30
0.0
 11
378.158
 21
160.38075
 31
0.0
  0
LINE
  5
1D4
330
20
100
AcDbEntity
  8
0
  6
Continuous
 62
     3
100
AcDbLine
 10
385.958
 20
151.88075
 30
0.0
 11
385.0580000000001
 21
151.88075
 31
0.0
  0
LINE
  5
1D5
330
20
100
AcDbEntity
  8
0
  6
Continuous
 62
     3
100
AcDbLine
 10
385.0580000000001
 20
151.88075
 30
0.0
 11
385.0580000000001
 21
155.88075
 31
0.0
  0
LINE
  5
1D6
330
20
100
AcDbEntity
  8
0
  6
Continuous
 62
     3
100
AcDbLine
 10
385.0580000000001
 20
151.88075
 30
0.0
 11
379.458
 21
151.88075
 31
0.0
  0
LINE
  5
1D7
330
20
100
AcDbEntity
  8
0
  6
Continuous
 62
     3
100
AcDbLine
 10
379.458
 20
155.88075
 30
0.0
 11
379.458
 21
151.38075
 31
0.0
  0
LINE
  5
1D8
330
20
100
AcDbEntity
  8
0
  6
Continuous
 62
     3
100
AcDbLine
 10
379.458
 20
151.38075
 30
0.0
 11
378.158
 21
151.38075
 31
0.0
  0
LINE
  5
1D9
330
20
100
AcDbEntity
  8
0
  6
Continuous
 62
     3
100
AcDbLine
 10
347.158
 20
171.78075
 30
0.0
 11
347.158
 21
173.98075
 31
0.0
  0
LINE
  5
1DA
330
20
100
AcDbEntity
  8
0
  6
Continuous
 62
     3
100
AcDbLine
 10
346.858
 20
174.38075
 30
0.0
 11
346.858
 21
171.38075
 31
0.0
  0
LINE
  5
1DB
330
20
100
AcDbEntity
  8
0
  6
Continuous
 62
     3
100
AcDbLine
 10
346.858
 20
174.38075
 30
0.0
 11
347.158
 21
173.98075
 31
0.0
  0
LINE
  5
1DC
330
20
100
AcDbEntity
  8
0
  6
Continuous
 62
     3
100
AcDbLine
 10
347.158
 20
171.78075
 30
0.0
 11
346.858
 21
171.38075
 31
0.0
  0
LINE
  5
1DD
330
20
100
AcDbEntity
  8
0
  6
Continuous
 62
     3
100
AcDbLine
 10
332.158
 20
174.38075
 30
0.0
 11
346.858
 21
174.38075
 31
0.0
  0
LINE
  5
1DE
330
20
100
AcDbEntity
  8
0
  6
Continuous
 62
     3
100
AcDbLine
 10
332.158
 20
171.38075
 30
0.0
 11
346.858
 21
171.38075
 31
0.0
  0
LINE
  5
1DF
330
20
100
AcDbEntity
  8
0
  6
Continuous
 62
     3
100
AcDbLine
 10
377.158
 20
173.38075
 30
0.0
 11
347.158
 21
173.38075
 31
0.0
  0
LINE
  5
1E0
330
20
100
AcDbEntity
  8
0
  6
Continuous
 62
     3
100
AcDbLine
 10
347.158
 20
109.98075
 30
0.0
 11
347.158
 21
107.78075
 31
0.0
  0
LINE
  5
1E1
330
20
100
AcDbEntity
  8
0
  6
Continuous
 62
     3
100
AcDbLine
 10
346.858
 20
107.38075
 30
0.0
 11
346.858
 21
110.38075
 31
0.0
  0
LINE
  5
1E2
330
20
100
AcDbEntity
  8
0
  6
Continuous
 62
     3
100
AcDbLine
 10
346.858
 20
107.38075
 30
0.0
 11
347.158
 21
107.78075
 31
0.0
  0
LINE
  5
1E3
330
20
100
AcDbEntity
  8
0
  6
Continuous
 62
     3
100
AcDbLine
 10
347.158
 20
109.98075
 30
0.0
 11
346.858
 21
110.38075
 31
0.0
  0
LINE
  5
1E4
330
20
100
AcDbEntity
  8
0
  6
Continuous
 62
     3
100
AcDbLine
 10
332.158
 20
107.38075
 30
0.0
 11
346.858
 21
107.38075
 31
0.0
  0
LINE
  5
1E5
330
20
100
AcDbEntity
  8
0
  6
Continuous
 62
     3
100
AcDbLine
 10
332.158
 20
110.38075
 30
0.0
 11
346.858
 21
110.38075
 31
0.0
  0
LINE
  5
1E6
330
20
100
AcDbEntity
  8
0
  6
Continuous
 62
     3
100
AcDbLine
 10
377.158
 20
108.38075
 30
0.0
 11
347.158
 21
108.38075
 31
0.0
  0
LINE
  5
1E7
330
20
100
AcDbEntity
  8
0
  6
LTYPE1
 62
     1
100
AcDbLine
 10
346.858
 20
288.48075
 30
0.0
 11
356.258
 21
288.48075
 31
0.0
  0
LINE
  5
1E8
330
20
100
AcDbEntity
  8
0
  6
LTYPE1
 62
     1
100
AcDbLine
 10
351.558
 20
283.78075
 30
0.0
 11
351.558
 21
293.18075
 31
0.0
  0
LINE
  5
1E9
330
20
100
AcDbEntity
  8
0
  6
LTYPE1
 62
     1
100
AcDbLine
 10
330.092301396
 20
243.160430602
 30
0.0
 11
325.392301396
 21
251.301069398
 31
0.0
  0
LINE
  5
1EA
330
20
100
AcDbEntity
  8
0
  6
LTYPE1
 62
     1
100
AcDbLine
 10
331.812620794
 20
249.58075
 30
0.0
 11
323.671981998
 21
244.88075
 31
0.0
  0
LINE
  5
1EB
330
20
100
AcDbEntity
  8
0
  6
LTYPE1
 62
     1
100
AcDbLine
 10
377.723698604
 20
251.301069398
 30
0.0
 11
373.023698604
 21
243.160430602
 31
0.0
  0
LINE
  5
1EC
330
20
100
AcDbEntity
  8
0
  6
LTYPE1
 62
     1
100
AcDbLine
 10
371.303379206
 20
249.58075
 30
0.0
 11
379.444018002
 21
244.88075
 31
0.0
  0
CIRCLE
  5
1ED
330
20
100
AcDbEntity
  8
0
  6
LTYPE1
 62
     1
100
AcDbCircle
 10
383.5580000000001
 20
292.98075
 30
0.0
 40
1.5
  0
LINE
  5
1EE
330
20
100
AcDbEntity
  8
0
  6
LTYPE1
 62
     1
100
AcDbLine
 10
383.5580000000001
 20
289.48075
 30
0.0
 11
383.5580000000001
 21
296.48075
 31
0.0
  0
LINE
  5
1EF
330
20
100
AcDbEntity
  8
0
  6
LTYPE1
 62
     1
100
AcDbLine
 10
380.058
 20
292.98075
 30
0.0
 11
387.0580000000001
 21
292.98075
 31
0.0
  0
CIRCLE
  5
1F0
330
20
100
AcDbEntity
  8
0
  6
LTYPE1
 62
     1
100
AcDbCircle
 10
319.558
 20
292.98075
 30
0.0
 40
1.5
  0
LINE
  5
1F1
330
20
100
AcDbEntity
  8
0
  6
LTYPE1
 62
     1
100
AcDbLine
 10
319.558
 20
289.48075
 30
0.0
 11
319.558
 21
296.48075
 31
0.0
  0
LINE
  5
1F2
330
20
100
AcDbEntity
  8
0
  6
LTYPE1
 62
     1
100
AcDbLine
 10
323.058
 20
292.98075
 30
0.0
 11
316.058
 21
292.98075
 31
0.0
  0
CIRCLE
  5
1F3
330
20
100
AcDbEntity
  8
0
  6
LTYPE1
 62
     1
100
AcDbCircle
 10
383.5580000000001
 20
228.98075
 30
0.0
 40
1.5
  0
LINE
  5
1F4
330
20
100
AcDbEntity
  8
0
  6
LTYPE1
 62
     1
100
AcDbLine
 10
383.5580000000001
 20
232.48075
 30
0.0
 11
383.5580000000001
 21
225.48075
 31
0.0
  0
LINE
  5
1F5
330
20
100
AcDbEntity
  8
0
  6
LTYPE1
 62
     1
100
AcDbLine
 10
380.058
 20
228.98075
 30
0.0
 11
387.0580000000001
 21
228.98075
 31
0.0
  0
CIRCLE
  5
1F6
330
20
100
AcDbEntity
  8
0
  6
LTYPE1
 62
     1
100
AcDbCircle
 10
319.558
 20
228.98075
 30
0.0
 40
1.5
  0
LINE
  5
1F7
330
20
100
AcDbEntity
  8
0
  6
LTYPE1
 62
     1
100
AcDbLine
 10
319.558
 20
232.48075
 30
0.0
 11
319.558
 21
225.48075
 31
0.0
  0
LINE
  5
1F8
330
20
100
AcDbEntity
  8
0
  6
LTYPE1
 62
     1
100
AcDbLine
 10
323.058
 20
228.98075
 30
0.0
 11
316.058
 21
228.98075
 31
0.0
  0
LINE
  5
1F9
330
20
100
AcDbEntity
  8
0
  6
LTYPE1
 62
     1
100
AcDbLine
 10
369.258
 20
276.378170968
 30
0.0
 11
356.858
 21
276.378170968
 31
0.0
  0
LINE
  5
1FA
330
20
100
AcDbEntity
  8
0
  6
LTYPE1
 62
     1
100
AcDbLine
 10
363.0580000000001
 20
270.178170968
 30
0.0
 11
363.0580000000001
 21
282.578170968
 31
0.0
  0
LINE
  5
1FB
330
20
100
AcDbEntity
  8
0
  6
LTYPE1
 62
     1
100
AcDbLine
 10
333.858
 20
276.378170968
 30
0.0
 11
346.258
 21
276.378170968
 31
0.0
  0
LINE
  5
1FC
330
20
100
AcDbEntity
  8
0
  6
LTYPE1
 62
     1
100
AcDbLine
 10
340.0580000000001
 20
270.178170968
 30
0.0
 11
340.0580000000001
 21
282.578170968
 31
0.0
  0
LINE
  5
1FD
330
20
100
AcDbEntity
  8
0
  6
LTYPE1
 62
     1
100
AcDbLine
 10
377.0580000000001
 20
155.88075
 30
0.0
 11
389.658
 21
155.88075
 31
0.0
  0
LINE
  5
1FE
330
20
100
AcDbEntity
  8
0
  6
LTYPE1
 62
     1
100
AcDbLine
 10
347.158
 20
173.98075
 30
0.0
 11
332.158
 21
173.98075
 31
0.0
  0
LINE
  5
1FF
330
20
100
AcDbEntity
  8
0
  6
LTYPE1
 62
     1
100
AcDbLine
 10
332.158
 20
171.78075
 30
0.0
 11
347.158
 21
171.78075
 31
0.0
  0
LINE
  5
200
330
20
100
AcDbEntity
  8
0
  6
LTYPE1
 62
     1
100
AcDbLine
 10
328.658
 20
172.88075
 30
0.0
 11
347.658
 21
172.88075
 31
0.0
  0
LINE
  5
201
330
20
100
AcDbEntity
  8
0
  6
LTYPE1
 62
     1
100
AcDbLine
 10
347.158
 20
107.78075
 30
0.0
 11
332.158
 21
107.78075
 31
0.0
  0
LINE
  5
202
330
20
100
AcDbEntity
  8
0
  6
LTYPE1
 62
     1
100
AcDbLine
 10
332.158
 20
109.98075
 30
0.0
 11
347.158
 21
109.98075
 31
0.0
  0
LINE
  5
203
330
20
100
AcDbEntity
  8
0
  6
LTYPE1
 62
     1
100
AcDbLine
 10
328.658
 20
108.88075
 30
0.0
 11
347.658
 21
108.88075
 31
0.0
  0
TEXT
  5
204
330
20
100
AcDbEntity
  8
0
  6
Continuous
 62
     4
100
AcDbText
 10
336.508
 20
262.78075
 30
0.0
 40
6.599999999999999
  1
＋
  7
KANJI6
100
AcDbText
  0
TEXT
  5
205
330
20
100
AcDbEntity
  8
0
  6
Continuous
 62
     4
100
AcDbText
 10
360.708
 20
263.08075
 30
0.0
 40
5.9
  1
－
  7
KANJI7
100
AcDbText
  0
LINE
  5
206
330
20
100
AcDbEntity
  8
2
  6
Continuous
 62
     4
100
AcDbLine
 10
332.158
 20
181.88075
 30
0.0
 11
332.158
 21
195.88075
 31
0.0
  0
LINE
  5
207
330
20
100
AcDbEntity
  8
2
  6
Continuous
 62
     4
100
AcDbLine
 10
332.158
 20
194.88075
 30
0.0
 11
334.572814566
 21
194.233702387
 31
0.0
  0
LINE
  5
208
330
20
100
AcDbEntity
  8
2
  6
Continuous
 62
     4
100
AcDbLine
 10
332.158
 20
194.88075
 30
0.0
 11
334.572814566
 21
195.527797613
 31
0.0
  0
LINE
  5
209
330
20
100
AcDbEntity
  8
2
  6
Continuous
 62
     4
100
AcDbLine
 10
332.158
 20
194.88075
 30
0.0
 11
347.158
 21
194.88075
 31
0.0
  0
LINE
  5
20A
330
20
100
AcDbEntity
  8
2
  6
Continuous
 62
     4
100
AcDbLine
 10
347.158
 20
194.88075
 30
0.0
 11
344.743185434
 21
195.527797613
 31
0.0
  0
LINE
  5
20B
330
20
100
AcDbEntity
  8
2
  6
Continuous
 62
     4
100
AcDbLine
 10
347.158
 20
194.88075
 30
0.0
 11
344.743185434
 21
194.233702387
 31
0.0
  0
LINE
  5
20C
330
20
100
AcDbEntity
  8
2
  6
Continuous
 62
     4
100
AcDbLine
 10
347.158
 20
174.98075
 30
0.0
 11
347.158
 21
195.88075
 31
0.0
  0
LINE
  5
20D
330
20
100
AcDbEntity
  8
2
  6
Continuous
 62
     4
100
AcDbLine
 10
347.5580000000001
 20
174.38075
 30
0.0
 11
349.507460761
 21
175.94587068
 31
0.0
  0
LINE
  5
20E
330
20
100
AcDbEntity
  8
2
  6
Continuous
 62
     4
100
AcDbLine
 10
347.5580000000001
 20
174.38075
 30
0.0
 11
348.463722203
 21
176.710914649
 31
0.0
  0
LINE
  5
20F
330
20
100
AcDbEntity
  8
2
  6
Continuous
 62
     4
100
AcDbLine
 10
347.5580000000001
 20
174.38075
 30
0.0
 11
361.558
 21
193.48075
 31
0.0
  0
LINE
  5
210
330
20
100
AcDbEntity
  8
2
  6
Continuous
 62
     4
100
AcDbLine
 10
341.358
 20
280.678170968
 30
0.0
 11
342.280084759
 21
283.00190927
 31
0.0
  0
LINE
  5
211
330
20
100
AcDbEntity
  8
2
  6
Continuous
 62
     4
100
AcDbLine
 10
341.358
 20
280.678170968
 30
0.0
 11
340.994679674
 21
283.151629749
 31
0.0
  0
LINE
  5
212
330
20
100
AcDbEntity
  8
2
  6
Continuous
 62
     4
100
AcDbLine
 10
341.358
 20
280.678170968
 30
0.0
 11
345.458
 21
315.878170968
 31
0.0
  0
TEXT
  5
213
330
20
100
AcDbEntity
  8
2
  6
Continuous
 62
     4
100
AcDbText
 10
361.558
 20
194.48075
 30
0.3
 40
6.0
  1
Ｍ３
  7
KANJI3
100
AcDbText
  0
TEXT
  5
214
330
20
100
AcDbEntity
  8
2
  6
Continuous
 62
     4
100
AcDbText
 10
345.458
 20
316.878170968
 30
0.3
 40
6.0
  1
Ｍ４
  7
KANJI3
100
AcDbText
  0
LINE
  5
215
330
20
100
AcDbEntity
  8
2
  6
Continuous
 62
     4
100
AcDbLine
 10
345.458
 20
315.878170968
 30
0.3
 11
357.958
 21
315.878170968
 31
0.3
  0
LINE
  5
216
330
20
100
AcDbEntity
  8
2
  6
Continuous
 62
     4
100
AcDbLine
 10
361.558
 20
193.48075
 30
0.0
 11
374.358
 21
193.48075
 31
0.0
  0
TEXT
  5
217
330
20
100
AcDbEntity
  8
2
  6
Continuous
 62
     4
100
AcDbText
 10
333.108
 20
195.88075
 30
0.3
 40
6.0
  1
１５
  7
KANJI3
100
AcDbText
  0
TEXT
  5
218
330
20
100
AcDbEntity
  8
2
  6
Continuous
 62
     4
100
AcDbText
 10
322.858
 20
327.28075
 30
7.9
 40
6.299999999999999
  1
背面端子
  7
KANJI8
100
AcDbText
  0
LINE
  5
219
330
20
100
AcDbEntity
  8
2
  6
Continuous
 62
     4
100
AcDbLine
 10
203.558
 20
180.88075
 30
7.9
 11
242.658
 21
180.88075
 31
7.9
  0
LINE
  5
21A
330
20
100
AcDbEntity
  8
2
  6
Continuous
 62
     4
100
AcDbLine
 10
241.658
 20
180.88075
 30
0.0
 11
241.010952387
 21
178.465935434
 31
0.0
  0
LINE
  5
21B
330
20
100
AcDbEntity
  8
2
  6
Continuous
 62
     4
100
AcDbLine
 10
241.658
 20
180.88075
 30
0.0
 11
242.305047613
 21
178.465935434
 31
0.0
  0
LINE
  5
21C
330
20
100
AcDbEntity
  8
2
  6
Continuous
 62
     4
100
AcDbLine
 10
241.658
 20
180.88075
 30
0.0
 11
241.658
 21
100.88075
 31
0.0
  0
LINE
  5
21D
330
20
100
AcDbEntity
  8
2
  6
Continuous
 62
     4
100
AcDbLine
 10
241.658
 20
100.88075
 30
0.0
 11
242.305047613
 21
103.295564566
 31
0.0
  0
LINE
  5
21E
330
20
100
AcDbEntity
  8
2
  6
Continuous
 62
     4
100
AcDbLine
 10
241.658
 20
100.88075
 30
0.0
 11
241.010952387
 21
103.295564566
 31
0.0
  0
LINE
  5
21F
330
20
100
AcDbEntity
  8
2
  6
Continuous
 62
     4
100
AcDbLine
 10
203.558
 20
100.88075
 30
0.0
 11
242.658
 21
100.88075
 31
0.0
  0
TEXT
  5
220
330
20
100
AcDbEntity
  8
2
  6
Continuous
 62
     4
100
AcDbText
 10
240.658
 20
136.73075
 30
0.3
 40
6.0
  1
８０
 50
90.0
  7
KANJI3
100
AcDbText
  0
LINE
  5
221
330
20
100
AcDbEntity
  8
2
  6
Continuous
 62
     4
100
AcDbLine
 10
124.558
 20
101.88075
 30
0.3
 11
124.558
 21
64.78075
 31
0.3
  0
LINE
  5
222
330
20
100
AcDbEntity
  8
2
  6
Continuous
 62
     4
100
AcDbLine
 10
124.558
 20
65.78075
 30
0.0
 11
126.972814566
 21
65.133702387
 31
0.0
  0
LINE
  5
223
330
20
100
AcDbEntity
  8
2
  6
Continuous
 62
     4
100
AcDbLine
 10
124.558
 20
65.78075
 30
0.0
 11
126.972814566
 21
66.42779761299999
 31
0.0
  0
LINE
  5
224
330
20
100
AcDbEntity
  8
2
  6
Continuous
 62
     4
100
AcDbLine
 10
124.558
 20
65.78075
 30
0.0
 11
204.558
 21
65.78075
 31
0.0
  0
LINE
  5
225
330
20
100
AcDbEntity
  8
2
  6
Continuous
 62
     4
100
AcDbLine
 10
204.558
 20
65.78075
 30
0.0
 11
202.143185434
 21
66.42779761299999
 31
0.0
  0
LINE
  5
226
330
20
100
AcDbEntity
  8
2
  6
Continuous
 62
     4
100
AcDbLine
 10
204.558
 20
65.78075
 30
0.0
 11
202.143185434
 21
65.133702387
 31
0.0
  0
LINE
  5
227
330
20
100
AcDbEntity
  8
2
  6
Continuous
 62
     4
100
AcDbLine
 10
204.558
 20
101.88075
 30
0.0
 11
204.558
 21
64.78075
 31
0.0
  0
TEXT
  5
228
330
20
100
AcDbEntity
  8
2
  6
Continuous
 62
     4
100
AcDbText
 10
160.408
 20
66.78074999999999
 30
0.3
 40
6.0
  1
８０
  7
KANJI3
100
AcDbText
  0
LINE
  5
229
330
20
100
AcDbEntity
  8
2
  6
Continuous
 62
     4
100
AcDbLine
 10
332.158
 20
99.88075000000002
 30
0.3
 11
332.158
 21
63.48075
 31
0.3
  0
LINE
  5
22A
330
20
100
AcDbEntity
  8
2
  6
Continuous
 62
     4
100
AcDbLine
 10
332.158
 20
64.48075
 30
0.0
 11
334.572814566
 21
63.83370238699999
 31
0.0
  0
LINE
  5
22B
330
20
100
AcDbEntity
  8
2
  6
Continuous
 62
     4
100
AcDbLine
 10
332.158
 20
64.48075
 30
0.0
 11
334.572814566
 21
65.127797613
 31
0.0
  0
LINE
  5
22C
330
20
100
AcDbEntity
  8
2
  6
Continuous
 62
     4
100
AcDbLine
 10
332.158
 20
64.48075
 30
0.0
 11
378.158
 21
64.48075
 31
0.0
  0
LINE
  5
22D
330
20
100
AcDbEntity
  8
2
  6
Continuous
 62
     4
100
AcDbLine
 10
378.158
 20
64.48075
 30
0.0
 11
375.743185434
 21
65.127797613
 31
0.0
  0
LINE
  5
22E
330
20
100
AcDbEntity
  8
2
  6
Continuous
 62
     4
100
AcDbLine
 10
378.158
 20
64.48075
 30
0.0
 11
375.743185434
 21
63.83370238699999
 31
0.0
  0
LINE
  5
22F
330
20
100
AcDbEntity
  8
2
  6
Continuous
 62
     4
100
AcDbLine
 10
378.158
 20
108.38075
 30
0.0
 11
378.158
 21
63.48075
 31
0.0
  0
LINE
  5
230
330
20
100
AcDbEntity
  8
2
  6
Continuous
 62
     4
100
AcDbLine
 10
332.158
 20
64.48075
 30
0.0
 11
334.572814566
 21
63.83370238699999
 31
0.0
  0
LINE
  5
231
330
20
100
AcDbEntity
  8
2
  6
Continuous
 62
     4
100
AcDbLine
 10
332.158
 20
64.48075
 30
0.0
 11
334.572814566
 21
65.127797613
 31
0.0
  0
LWPOLYLINE
  5
232
330
20
100
AcDbEntity
  8
2
  6
Continuous
 62
     4
100
AcDbPolyline
 90
        4
 70
     0
 43
0.0
 10
335.908
 20
64.48075
 10
332.158
 20
64.48075
 10
316.159124652
 20
64.48075
 10
304.109124652
 20
64.48075
  0
LINE
  5
238
330
20
100
AcDbEntity
  8
2
  6
Continuous
 62
     4
100
AcDbLine
 10
316.159124652
 20
64.48075
 30
0.0
 11
313.744310086
 21
65.127797613
 31
0.0
  0
LINE
  5
239
330
20
100
AcDbEntity
  8
2
  6
Continuous
 62
     4
100
AcDbLine
 10
316.159124652
 20
64.48075
 30
0.0
 11
313.744310086
 21
63.83370238699999
 31
0.0
  0
LINE
  5
23A
330
20
100
AcDbEntity
  8
2
  6
Continuous
 62
     4
100
AcDbLine
 10
316.159124652
 20
139.88075
 30
0.0
 11
316.159124652
 21
63.48075
 31
0.0
  0
LINE
  5
23B
330
20
100
AcDbEntity
  8
2
  6
Continuous
 62
     4
100
AcDbLine
 10
378.158
 20
64.48075
 30
0.0
 11
375.743185434
 21
65.127797613
 31
0.0
  0
LINE
  5
23C
330
20
100
AcDbEntity
  8
2
  6
Continuous
 62
     4
100
AcDbLine
 10
378.158
 20
64.48075
 30
0.0
 11
375.743185434
 21
63.83370238699999
 31
0.0
  0
LWPOLYLINE
  5
23D
330
20
100
AcDbEntity
  8
2
  6
Continuous
 62
     4
100
AcDbPolyline
 90
        4
 70
     0
 43
0.0
 10
374.408
 20
64.48075
 10
378.158
 20
64.48075
 10
388.158
 20
64.48075
 10
400.208
 20
64.48075
  0
LINE
  5
243
330
20
100
AcDbEntity
  8
2
  6
Continuous
 62
     4
100
AcDbLine
 10
388.158
 20
64.48075
 30
0.0
 11
390.572814566
 21
63.83370238699999
 31
0.0
  0
LINE
  5
244
330
20
100
AcDbEntity
  8
2
  6
Continuous
 62
     4
100
AcDbLine
 10
388.158
 20
64.48075
 30
0.0
 11
390.572814566
 21
65.127797613
 31
0.0
  0
LINE
  5
245
330
20
100
AcDbEntity
  8
2
  6
Continuous
 62
     4
100
AcDbLine
 10
388.158
 20
153.08075
 30
0.0
 11
388.158
 21
63.48075
 31
0.0
  0
TEXT
  5
246
330
20
100
AcDbEntity
  8
2
  6
Continuous
 62
     4
100
AcDbText
 10
351.008
 20
65.48075
 30
0.3
 40
6.0
  1
４６
  7
KANJI3
100
AcDbText
  0
TEXT
  5
247
330
20
100
AcDbEntity
  8
2
  6
Continuous
 62
     4
100
AcDbText
 10
304.109124652
 20
65.48075
 30
0.3
 40
6.0
  1
１６
  7
KANJI3
100
AcDbText
  0
TEXT
  5
248
330
20
100
AcDbEntity
  8
2
  6
Continuous
 62
     4
100
AcDbText
 10
391.908
 20
65.48075
 30
0.3
 40
6.0
  1
１０
  7
KANJI3
100
AcDbText
  0
ENDSEC
  0
SECTION
  2
OBJECTS
  0
DICTIONARY
  5
C
330
0
100
AcDbDictionary
281
     1
  3
ACAD_COLOR
350
1B
  3
ACAD_GROUP
350
D
  3
ACAD_LAYOUT
350
19
  3
ACAD_MATERIAL
350
1A
  3
ACAD_MLINESTYLE
350
16
  3
ACAD_PLOTSETTINGS
350
18
  3
ACAD_PLOTSTYLENAME
350
E
  3
ACDBHEADERROUNDTRIPXREC
350
24F
  3
AcDbVariableDictionary
350
24B
  0
DICTIONARY
  5
1B
102
{ACAD_REACTORS
330
C
102
}
330
C
100
AcDbDictionary
281
     1
  0
DICTIONARY
  5
D
102
{ACAD_REACTORS
330
C
102
}
330
C
100
AcDbDictionary
281
     1
  0
DICTIONARY
  5
19
102
{ACAD_REACTORS
330
C
102
}
330
C
100
AcDbDictionary
281
     1
  3
Model
350
23
  3
レイアウト1
350
1F
  0
DICTIONARY
  5
1A
102
{ACAD_REACTORS
330
C
102
}
330
C
100
AcDbDictionary
281
     1
  0
DICTIONARY
  5
16
102
{ACAD_REACTORS
330
C
102
}
330
C
100
AcDbDictionary
281
     1
  3
Standard
350
17
  0
DICTIONARY
  5
18
102
{ACAD_REACTORS
330
C
102
}
330
C
100
AcDbDictionary
281
     1
  0
ACDBDICTIONARYWDFLT
  5
E
102
{ACAD_REACTORS
330
C
102
}
330
C
100
AcDbDictionary
281
     1
  3
Normal
350
F
100
AcDbDictionaryWithDefault
340
F
  0
DICTIONARY
  5
24F
102
{ACAD_REACTORS
330
C
102
}
330
C
100
AcDbDictionary
281
     1
  3
COLORDICT
350
251
  3
MATERIALDICT
350
250
  0
DICTIONARY
  5
24B
102
{ACAD_REACTORS
330
C
102
}
330
C
100
AcDbDictionary
281
     1
  3
DIMASSOC
350
24C
  3
PROJECTNAME
350
24D
  0
LAYOUT
  5
23
102
{ACAD_XDICTIONARY
360
254
102
}
102
{ACAD_REACTORS
330
19
102
}
330
19
100
AcDbPlotSettings
  1

  2
hp psc 2500 series
  4

  6

 40
0.0
 41
0.0
 42
0.0
 43
0.0
 44
0.0
 45
0.0
 46
0.0
 47
0.0
 48
0.0
 49
0.0
140
0.0
141
0.0
142
1.0
143
1.0
 70
  1712
 72
     0
 73
     0
 74
     0
  7

 75
     0
147
1.0
148
0.0
149
0.0
100
AcDbLayout
  1
Model
 70
     1
 71
     0
 10
0.0
 20
0.0
 11
12.0
 21
9.0
 12
0.0
 22
0.0
 32
0.0
 14
0.0
 24
0.0
 34
0.0
 15
0.0
 25
0.0
 35
0.0
146
0.0
 13
0.0
 23
0.0
 33
0.0
 16
1.0
 26
0.0
 36
0.0
 17
0.0
 27
1.0
 37
0.0
 76
     0
330
20
  0
LAYOUT
  5
1F
102
{ACAD_XDICTIONARY
360
252
102
}
102
{ACAD_REACTORS
330
19
102
}
330
19
100
AcDbPlotSettings
  1

  2
hp psc 2500 series
  4

  6

 40
0.0
 41
0.0
 42
0.0
 43
0.0
 44
0.0
 45
0.0
 46
0.0
 47
0.0
 48
0.0
 49
0.0
140
0.0
141
0.0
142
1.0
143
1.0
 70
   688
 72
     0
 73
     0
 74
     5
  7

 75
    16
147
1.0
148
0.0
149
0.0
100
AcDbLayout
  1
レイアウト1
 70
     1
 71
     1
 10
0.0
 20
0.0
 11
12.0
 21
9.0
 12
0.0
 22
0.0
 32
0.0
 14
1.000000000000000E+20
 24
1.000000000000000E+20
 34
1.000000000000000E+20
 15
-1.000000000000000E+20
 25
-1.000000000000000E+20
 35
-1.000000000000000E+20
146
0.0
 13
0.0
 23
0.0
 33
0.0
 16
1.0
 26
0.0
 36
0.0
 17
0.0
 27
1.0
 37
0.0
 76
     0
330
1C
  0
MLINESTYLE
  5
17
102
{ACAD_REACTORS
330
16
102
}
330
16
100
AcDbMlineStyle
  2
STANDARD
 70
     0
  3

 62
   256
 51
90.0
 52
90.0
 71
     2
 49
0.5
 62
   256
  6
BYLAYER
 49
-0.5
 62
   256
  6
BYLAYER
  0
ACDBPLACEHOLDER
  5
F
102
{ACAD_REACTORS
330
E
102
}
330
E
  0
XRECORD
  5
251
102
{ACAD_REACTORS
330
24F
102
}
330
24F
100
AcDbXrecord
280
     1
340
1B
  0
XRECORD
  5
250
102
{ACAD_REACTORS
330
24F
102
}
330
24F
100
AcDbXrecord
280
     1
340
1A
  0
DICTIONARYVAR
  5
24C
102
{ACAD_REACTORS
330
24B
102
}
330
24B
100
DictionaryVariables
280
     0
  1
1
  0
DICTIONARYVAR
  5
24D
102
{ACAD_REACTORS
330
24B
102
}
330
24B
100
DictionaryVariables
280
     0
  1

  0
DICTIONARY
  5
254
330
23
100
AcDbDictionary
280
     1
281
     1
  3
ACAD_XREC_ROUNDTRIP
360
255
  0
DICTIONARY
  5
252
330
1F
100
AcDbDictionary
280
     1
281
     1
  3
ACAD_XREC_ROUNDTRIP
360
253
  0
XRECORD
  5
255
102
{ACAD_REACTORS
330
254
102
}
330
254
100
AcDbXrecord
280
     1
102
SHADEPLOT
 70
     0
102
SHADEPLOTRESLEVEL
 70
     2
102
SHADEPLOTCUSTOMDPI
 70
   300
  0
XRECORD
  5
253
102
{ACAD_REACTORS
330
252
102
}
330
252
100
AcDbXrecord
280
     1
102
SHADEPLOT
 70
     0
102
SHADEPLOTRESLEVEL
 70
     2
102
SHADEPLOTCUSTOMDPI
 70
   300
  0
ENDSEC
  0
EOF
