  0
SECTION
  2
HEADER
  9
$ACADVER
  1
AC1015
  9
$ACADMAINTVER
 70
    20
  9
$DWGCODEPAGE
  3
ANSI_932
  9
$INSBASE
 10
0.0
 20
0.0
 30
0.0
  9
$EXTMIN
 10
26.4932570290905
 20
58.0499278032803
 30
-0.0015258207003583
  9
$EXTMAX
 10
539.4998487316768
 20
383.5473642167024
 30
7.901001020685079
  9
$LIMMIN
 10
0.0
 20
0.0
  9
$LIMMAX
 10
594.0
 20
420.0
  9
$ORTHOMODE
 70
     0
  9
$REGENMODE
 70
     1
  9
$FILLMODE
 70
     1
  9
$QTEXTMODE
 70
     0
  9
$MIRRTEXT
 70
     0
  9
$LTSCALE
 40
1.0
  9
$ATTMODE
 70
     1
  9
$TEXTSIZE
 40
0.2
  9
$TRACEWID
 40
0.05
  9
$TEXTSTYLE
  7
STANDARD
  9
$CLAYER
  8
0
  9
$CELTYPE
  6
CONTINUOUS
  9
$CECOLOR
 62
   256
  9
$CELTSCALE
 40
1.0
  9
$DISPSILH
 70
     0
  9
$DIMSCALE
 40
1.0
  9
$DIMASZ
 40
0.18
  9
$DIMEXO
 40
0.0625
  9
$DIMDLI
 40
0.38
  9
$DIMRND
 40
0.0
  9
$DIMDLE
 40
0.0
  9
$DIMEXE
 40
0.18
  9
$DIMTP
 40
0.0
  9
$DIMTM
 40
0.0
  9
$DIMTXT
 40
0.18
  9
$DIMCEN
 40
0.09
  9
$DIMTSZ
 40
0.0
  9
$DIMTOL
 70
     0
  9
$DIMLIM
 70
     0
  9
$DIMTIH
 70
     1
  9
$DIMTOH
 70
     1
  9
$DIMSE1
 70
     0
  9
$DIMSE2
 70
     0
  9
$DIMTAD
 70
     0
  9
$DIMZIN
 70
     0
  9
$DIMBLK
  1

  9
$DIMASO
 70
     1
  9
$DIMSHO
 70
     1
  9
$DIMPOST
  1

  9
$DIMAPOST
  1

  9
$DIMALT
 70
     0
  9
$DIMALTD
 70
     2
  9
$DIMALTF
 40
25.4
  9
$DIMLFAC
 40
1.0
  9
$DIMTOFL
 70
     0
  9
$DIMTVP
 40
0.0
  9
$DIMTIX
 70
     0
  9
$DIMSOXD
 70
     0
  9
$DIMSAH
 70
     0
  9
$DIMBLK1
  1

  9
$DIMBLK2
  1

  9
$DIMSTYLE
  2
Standard
  9
$DIMCLRD
 70
     0
  9
$DIMCLRE
 70
     0
  9
$DIMCLRT
 70
     0
  9
$DIMTFAC
 40
1.0
  9
$DIMGAP
 40
0.09
  9
$DIMJUST
 70
     0
  9
$DIMSD1
 70
     0
  9
$DIMSD2
 70
     0
  9
$DIMTOLJ
 70
     1
  9
$DIMTZIN
 70
     0
  9
$DIMALTZ
 70
     0
  9
$DIMALTTZ
 70
     0
  9
$DIMUPT
 70
     0
  9
$DIMDEC
 70
     4
  9
$DIMTDEC
 70
     4
  9
$DIMALTU
 70
     2
  9
$DIMALTTD
 70
     2
  9
$DIMTXSTY
  7
STANDARD
  9
$DIMAUNIT
 70
     0
  9
$DIMADEC
 70
     0
  9
$DIMALTRND
 40
0.0
  9
$DIMAZIN
 70
     0
  9
$DIMDSEP
 70
    46
  9
$DIMATFIT
 70
     3
  9
$DIMFRAC
 70
     0
  9
$DIMLDRBLK
  1

  9
$DIMLUNIT
 70
     2
  9
$DIMLWD
 70
    -2
  9
$DIMLWE
 70
    -2
  9
$DIMTMOVE
 70
     0
  9
$LUNITS
 70
     2
  9
$LUPREC
 70
     4
  9
$SKETCHINC
 40
0.1
  9
$FILLETRAD
 40
0.0
  9
$AUNITS
 70
     0
  9
$AUPREC
 70
     0
  9
$MENU
  1
.
  9
$ELEVATION
 40
0.0
  9
$PELEVATION
 40
0.0
  9
$THICKNESS
 40
0.0
  9
$LIMCHECK
 70
     0
  9
$CHAMFERA
 40
0.0
  9
$CHAMFERB
 40
0.0
  9
$CHAMFERC
 40
0.0
  9
$CHAMFERD
 40
0.0
  9
$SKPOLY
 70
     0
  9
$TDCREATE
 40
2453592.390902593
  9
$TDUCREATE
 40
2453592.015902593
  9
$TDUPDATE
 40
2453592.391295567
  9
$TDUUPDATE
 40
2453592.016295568
  9
$TDINDWG
 40
0.0003931597
  9
$TDUSRTIMER
 40
0.0003931597
  9
$USRTIMER
 70
     1
  9
$ANGBASE
 50
0.0
  9
$ANGDIR
 70
     0
  9
$PDMODE
 70
     0
  9
$PDSIZE
 40
0.0
  9
$PLINEWID
 40
0.0
  9
$SPLFRAME
 70
     0
  9
$SPLINETYPE
 70
     6
  9
$SPLINESEGS
 70
     8
  9
$HANDSEED
  5
456
  9
$SURFTAB1
 70
     6
  9
$SURFTAB2
 70
     6
  9
$SURFTYPE
 70
     6
  9
$SURFU
 70
     6
  9
$SURFV
 70
     6
  9
$UCSBASE
  2

  9
$UCSNAME
  2

  9
$UCSORG
 10
0.0
 20
0.0
 30
0.0
  9
$UCSXDIR
 10
1.0
 20
0.0
 30
0.0
  9
$UCSYDIR
 10
0.0
 20
1.0
 30
0.0
  9
$UCSORTHOREF
  2

  9
$UCSORTHOVIEW
 70
     0
  9
$UCSORGTOP
 10
0.0
 20
0.0
 30
0.0
  9
$UCSORGBOTTOM
 10
0.0
 20
0.0
 30
0.0
  9
$UCSORGLEFT
 10
0.0
 20
0.0
 30
0.0
  9
$UCSORGRIGHT
 10
0.0
 20
0.0
 30
0.0
  9
$UCSORGFRONT
 10
0.0
 20
0.0
 30
0.0
  9
$UCSORGBACK
 10
0.0
 20
0.0
 30
0.0
  9
$PUCSBASE
  2

  9
$PUCSNAME
  2

  9
$PUCSORG
 10
0.0
 20
0.0
 30
0.0
  9
$PUCSXDIR
 10
1.0
 20
0.0
 30
0.0
  9
$PUCSYDIR
 10
0.0
 20
1.0
 30
0.0
  9
$PUCSORTHOREF
  2

  9
$PUCSORTHOVIEW
 70
     0
  9
$PUCSORGTOP
 10
0.0
 20
0.0
 30
0.0
  9
$PUCSORGBOTTOM
 10
0.0
 20
0.0
 30
0.0
  9
$PUCSORGLEFT
 10
0.0
 20
0.0
 30
0.0
  9
$PUCSORGRIGHT
 10
0.0
 20
0.0
 30
0.0
  9
$PUCSORGFRONT
 10
0.0
 20
0.0
 30
0.0
  9
$PUCSORGBACK
 10
0.0
 20
0.0
 30
0.0
  9
$USERI1
 70
     0
  9
$USERI2
 70
     0
  9
$USERI3
 70
     0
  9
$USERI4
 70
     0
  9
$USERI5
 70
     0
  9
$USERR1
 40
0.0
  9
$USERR2
 40
0.0
  9
$USERR3
 40
0.0
  9
$USERR4
 40
0.0
  9
$USERR5
 40
0.0
  9
$WORLDVIEW
 70
     1
  9
$SHADEDGE
 70
     3
  9
$SHADEDIF
 70
    70
  9
$TILEMODE
 70
     1
  9
$MAXACTVP
 70
    64
  9
$PINSBASE
 10
0.0
 20
0.0
 30
0.0
  9
$PLIMCHECK
 70
     0
  9
$PEXTMIN
 10
1.000000000000000E+20
 20
1.000000000000000E+20
 30
1.000000000000000E+20
  9
$PEXTMAX
 10
-1.000000000000000E+20
 20
-1.000000000000000E+20
 30
-1.000000000000000E+20
  9
$PLIMMIN
 10
0.0
 20
0.0
  9
$PLIMMAX
 10
12.0
 20
9.0
  9
$UNITMODE
 70
     0
  9
$VISRETAIN
 70
     1
  9
$PLINEGEN
 70
     0
  9
$PSLTSCALE
 70
     1
  9
$TREEDEPTH
 70
  3020
  9
$CMLSTYLE
  2
Standard
  9
$CMLJUST
 70
     0
  9
$CMLSCALE
 40
1.0
  9
$PROXYGRAPHICS
 70
     1
  9
$MEASUREMENT
 70
     0
  9
$CELWEIGHT
370
    -1
  9
$ENDCAPS
280
     0
  9
$JOINSTYLE
280
     0
  9
$LWDISPLAY
290
     0
  9
$INSUNITS
 70
     0
  9
$HYPERLINKBASE
  1

  9
$STYLESHEET
  1

  9
$XEDIT
290
     1
  9
$CEPSNTYPE
380
     0
  9
$PSTYLEMODE
290
     1
  9
$FINGERPRINTGUID
  2
{4AFF5F72-866E-46D2-875B-EEE079A652A2}
  9
$VERSIONGUID
  2
{8740928F-14D8-4CDF-A131-EE9E1FC7AF55}
  9
$EXTNAMES
290
     1
  9
$PSVPSCALE
 40
0.0
  9
$OLESTARTUP
290
     0
  0
ENDSEC
  0
SECTION
  2
CLASSES
  0
CLASS
  1
ACDBDICTIONARYWDFLT
  2
AcDbDictionaryWithDefault
  3
ObjectDBX Classes
 90
        0
280
     0
281
     0
  0
CLASS
  1
DICTIONARYVAR
  2
AcDbDictionaryVar
  3
ObjectDBX Classes
 90
        0
280
     0
281
     0
  0
CLASS
  1
ACDBPLACEHOLDER
  2
AcDbPlaceHolder
  3
ObjectDBX Classes
 90
        0
280
     0
281
     0
  0
CLASS
  1
LAYOUT
  2
AcDbLayout
  3
ObjectDBX Classes
 90
        0
280
     0
281
     0
  0
ENDSEC
  0
SECTION
  2
TABLES
  0
TABLE
  2
VPORT
  5
8
330
0
100
AcDbSymbolTable
 70
     2
  0
VPORT
  5
44E
330
8
100
AcDbSymbolTableRecord
100
AcDbViewportTableRecord
  2
*Active
 70
     0
 10
0.0
 20
0.0
 11
1.0
 21
1.0
 12
296.9999999999999
 22
210.0
 13
0.0
 23
0.0
 14
1.0
 24
1.0
 15
0.0
 25
0.0
 16
0.0
 26
0.0
 36
1.0
 17
0.0
 27
0.0
 37
0.0
 40
424.7279549718574
 41
1.785714285714285
 42
50.0
 43
0.0
 44
0.0
 50
0.0
 51
0.0
 71
     0
 72
   100
 73
     1
 74
     1
 75
     0
 76
     0
 77
     0
 78
     0
281
     0
 65
     1
110
0.0
120
0.0
130
0.0
111
1.0
121
0.0
131
0.0
112
0.0
122
1.0
132
0.0
 79
     0
146
0.0
  0
ENDTAB
  0
TABLE
  2
LTYPE
  5
5
330
0
100
AcDbSymbolTable
 70
     2
  0
LTYPE
  5
13
330
5
100
AcDbSymbolTableRecord
100
AcDbLinetypeTableRecord
  2
ByBlock
 70
     0
  3

 72
    65
 73
     0
 40
0.0
  0
LTYPE
  5
14
330
5
100
AcDbSymbolTableRecord
100
AcDbLinetypeTableRecord
  2
ByLayer
 70
     0
  3

 72
    65
 73
     0
 40
0.0
  0
LTYPE
  5
15
330
5
100
AcDbSymbolTableRecord
100
AcDbLinetypeTableRecord
  2
CONTINUOUS
 70
     0
  3
Solid line
 72
    65
 73
     0
 40
0.0
  0
LTYPE
  5
24
330
5
100
AcDbSymbolTableRecord
100
AcDbLinetypeTableRecord
  2
LTYPE1
 70
     0
  3
CENTER
 72
    65
 73
     4
 40
15.0
 49
10.5
 74
     0
 49
-1.5
 74
     0
 49
1.5
 74
     0
 49
-1.5
 74
     0
  0
ENDTAB
  0
TABLE
  2
LAYER
  5
2
330
0
100
AcDbSymbolTable
 70
   128
  0
LAYER
  5
10
330
2
100
AcDbSymbolTableRecord
100
AcDbLayerTableRecord
  2
0
 70
     0
 62
     7
  6
CONTINUOUS
370
    -3
390
F
  0
LAYER
  5
25
330
2
100
AcDbSymbolTableRecord
100
AcDbLayerTableRecord
  2
2
 70
     0
 62
     7
  6
CONTINUOUS
370
    -3
390
F
  0
ENDTAB
  0
TABLE
  2
STYLE
  5
3
330
0
100
AcDbSymbolTable
 70
    15
  0
STYLE
  5
11
330
3
100
AcDbSymbolTableRecord
100
AcDbTextStyleTableRecord
  2
STANDARD
 70
     0
 40
0.0
 41
1.0
 50
0.0
 71
     0
 42
0.2
  3
txt
  4

  0
STYLE
  5
A4
330
3
100
AcDbSymbolTableRecord
100
AcDbTextStyleTableRecord
  2
KANJI0
 70
     0
 40
4.9
 41
0.7653061220000001
 50
0.0
 71
     0
 42
4.9
  3

  4
bigfont
  0
STYLE
  5
A5
330
3
100
AcDbSymbolTableRecord
100
AcDbTextStyleTableRecord
  2
KANJI1
 70
     0
 40
4.41
 41
0.7653061220000001
 50
0.0
 71
     0
 42
4.41
  3

  4
bigfont
  0
STYLE
  5
A6
330
3
100
AcDbSymbolTableRecord
100
AcDbTextStyleTableRecord
  2
KANJI2
 70
     0
 40
4.799999999999999
 41
0.8402777779999999
 50
0.0
 71
     0
 42
4.799999999999999
  3

  4
bigfont
  0
STYLE
  5
A7
330
3
100
AcDbSymbolTableRecord
100
AcDbTextStyleTableRecord
  2
KANJI3
 70
     4
 40
5.5
 41
1.0
 50
0.0
 71
     0
 42
5.5
  3

  4
bigfont
  0
STYLE
  5
A8
330
3
100
AcDbSymbolTableRecord
100
AcDbTextStyleTableRecord
  2
KANJI4
 70
     4
 40
3.85
 41
1.0
 50
0.0
 71
     0
 42
3.85
  3

  4
bigfont
  0
STYLE
  5
A9
330
3
100
AcDbSymbolTableRecord
100
AcDbTextStyleTableRecord
  2
KANJI5
 70
     0
 40
2.5
 41
0.5200000000000001
 50
0.0
 71
     0
 42
2.5
  3

  4
bigfont
  0
STYLE
  5
AA
330
3
100
AcDbSymbolTableRecord
100
AcDbTextStyleTableRecord
  2
KANJI6
 70
     0
 40
2.16
 41
1.0
 50
0.0
 71
     0
 42
2.16
  3

  4
bigfont
  0
STYLE
  5
AB
330
3
100
AcDbSymbolTableRecord
100
AcDbTextStyleTableRecord
  2
KANJI7
 70
     0
 40
2.609999999999999
 41
0.8362068970000001
 50
0.0
 71
     0
 42
2.609999999999999
  3

  4
bigfont
  0
STYLE
  5
AC
330
3
100
AcDbSymbolTableRecord
100
AcDbTextStyleTableRecord
  2
KANJI8
 70
     0
 40
6.299999999999999
 41
1.0
 50
0.0
 71
     0
 42
6.299999999999999
  3

  4
bigfont
  0
STYLE
  5
AD
330
3
100
AcDbSymbolTableRecord
100
AcDbTextStyleTableRecord
  2
KANJI9
 70
     0
 40
6.0
 41
1.0
 50
0.0
 71
     0
 42
6.0
  3

  4
bigfont
  0
STYLE
  5
AE
330
3
100
AcDbSymbolTableRecord
100
AcDbTextStyleTableRecord
  2
KANJI10
 70
     0
 40
4.799999999999999
 41
1.0
 50
0.0
 71
     0
 42
4.799999999999999
  3

  4
bigfont
  0
STYLE
  5
AF
330
3
100
AcDbSymbolTableRecord
100
AcDbTextStyleTableRecord
  2
KANJI11
 70
     0
 40
8.039999999999999
 41
0.7174129350000001
 50
0.0
 71
     0
 42
8.039999999999999
  3

  4
bigfont
  0
STYLE
  5
B0
330
3
100
AcDbSymbolTableRecord
100
AcDbTextStyleTableRecord
  2
KANJI12
 70
     0
 40
5.2
 41
1.0
 50
0.0
 71
     0
 42
5.2
  3

  4
bigfont
  0
STYLE
  5
B1
330
3
100
AcDbSymbolTableRecord
100
AcDbTextStyleTableRecord
  2
KANJI13
 70
     0
 40
6.36
 41
1.0
 50
0.0
 71
     0
 42
6.36
  3

  4
bigfont
  0
ENDTAB
  0
TABLE
  2
VIEW
  5
6
330
0
100
AcDbSymbolTable
 70
     0
  0
ENDTAB
  0
TABLE
  2
UCS
  5
7
330
0
100
AcDbSymbolTable
 70
     0
  0
ENDTAB
  0
TABLE
  2
APPID
  5
9
330
0
100
AcDbSymbolTable
 70
     1
  0
APPID
  5
12
330
9
100
AcDbSymbolTableRecord
100
AcDbRegAppTableRecord
  2
ACAD
 70
     0
  0
ENDTAB
  0
TABLE
  2
DIMSTYLE
  5
A
330
0
100
AcDbSymbolTable
 70
     1
100
AcDbDimStyleTable
 71
     0
  0
DIMSTYLE
105
449
330
A
100
AcDbSymbolTableRecord
100
AcDbDimStyleTableRecord
  2
Standard
 70
     0
340
11
  0
ENDTAB
  0
TABLE
  2
BLOCK_RECORD
  5
1
330
0
100
AcDbSymbolTable
 70
     0
  0
BLOCK_RECORD
  5
20
330
1
100
AcDbSymbolTableRecord
100
AcDbBlockTableRecord
  2
*Model_Space
340
23
  0
BLOCK_RECORD
  5
1C
330
1
100
AcDbSymbolTableRecord
100
AcDbBlockTableRecord
  2
*Paper_Space
340
1F
  0
ENDTAB
  0
ENDSEC
  0
SECTION
  2
BLOCKS
  0
BLOCK
  5
21
330
20
100
AcDbEntity
  8
0
100
AcDbBlockBegin
  2
*Model_Space
 70
     0
 10
0.0
 20
0.0
 30
0.0
  3
*Model_Space
  1

  0
ENDBLK
  5
22
330
20
100
AcDbEntity
  8
0
100
AcDbBlockEnd
  0
BLOCK
  5
1D
330
1C
100
AcDbEntity
 67
     1
  8
0
100
AcDbBlockBegin
  2
*Paper_Space
 70
     0
 10
0.0
 20
0.0
 30
0.0
  3
*Paper_Space
  1

  0
ENDBLK
  5
1E
330
1C
100
AcDbEntity
 67
     1
  8
0
100
AcDbBlockEnd
  0
ENDSEC
  0
SECTION
  2
ENTITIES
  0
ARC
  5
B5
330
20
100
AcDbEntity
  8
0
  6
Continuous
 62
     3
100
AcDbCircle
 10
93.95799999999999
 20
86.18075000000001
 30
0.0
 40
2.0
100
AcDbArc
 50
180.0
 51
270.0
  0
LINE
  5
B6
330
20
100
AcDbEntity
  8
0
  6
Continuous
 62
     3
100
AcDbLine
 10
93.95799999999999
 20
84.18074999999999
 30
0.0
 11
169.958
 21
84.18074999999999
 31
0.0
  0
ARC
  5
B7
330
20
100
AcDbEntity
  8
0
  6
Continuous
 62
     3
100
AcDbCircle
 10
169.958
 20
86.18075000000001
 30
0.0
 40
2.0
100
AcDbArc
 50
270.0
 51
0.0
  0
LINE
  5
B8
330
20
100
AcDbEntity
  8
0
  6
Continuous
 62
     3
100
AcDbLine
 10
171.958
 20
86.18075000000001
 30
0.0
 11
171.958
 21
162.18075
 31
0.0
  0
ARC
  5
B9
330
20
100
AcDbEntity
  8
0
  6
Continuous
 62
     3
100
AcDbCircle
 10
169.958
 20
162.18075
 30
0.0
 40
2.0
100
AcDbArc
 50
0.0
 51
90.0
  0
LINE
  5
BA
330
20
100
AcDbEntity
  8
0
  6
Continuous
 62
     3
100
AcDbLine
 10
169.958
 20
164.18075
 30
0.0
 11
93.95799999999999
 21
164.18075
 31
0.0
  0
ARC
  5
BB
330
20
100
AcDbEntity
  8
0
  6
Continuous
 62
     3
100
AcDbCircle
 10
93.95799999999999
 20
162.18075
 30
0.0
 40
2.0
100
AcDbArc
 50
90.0
 51
180.0
  0
LINE
  5
BC
330
20
100
AcDbEntity
  8
0
  6
Continuous
 62
     3
100
AcDbLine
 10
91.958
 20
162.18075
 30
0.0
 11
91.958
 21
86.18075000000001
 31
0.0
  0
CIRCLE
  5
BD
330
20
100
AcDbEntity
  8
0
  6
Continuous
 62
     3
100
AcDbCircle
 10
131.958
 20
124.18075
 30
0.0
 40
39.100127877
  0
CIRCLE
  5
BE
330
20
100
AcDbEntity
  8
0
  6
Continuous
 62
     3
100
AcDbCircle
 10
131.958
 20
124.18075
 30
0.0
 40
38.204711751
  0
CIRCLE
  5
BF
330
20
100
AcDbEntity
  8
0
  6
Continuous
 62
     3
100
AcDbCircle
 10
131.958
 20
124.18075
 30
0.0
 40
7.515317690999999
  0
CIRCLE
  5
C0
330
20
100
AcDbEntity
  8
0
  6
Continuous
 62
     3
100
AcDbCircle
 10
131.958
 20
124.18075
 30
0.0
 40
6.82191727
  0
CIRCLE
  5
C1
330
20
100
AcDbEntity
  8
0
  6
Continuous
 62
     3
100
AcDbCircle
 10
131.958
 20
124.18075
 30
0.0
 40
6.099999999999999
  0
CIRCLE
  5
C2
330
20
100
AcDbEntity
  8
0
  6
Continuous
 62
     3
100
AcDbCircle
 10
131.958
 20
124.18075
 30
0.0
 40
5.403702433999999
  0
CIRCLE
  5
C3
330
20
100
AcDbEntity
  8
0
  6
Continuous
 62
     3
100
AcDbCircle
 10
131.958
 20
124.18075
 30
0.0
 40
4.609772228999999
  0
CIRCLE
  5
C4
330
20
100
AcDbEntity
  8
0
  6
Continuous
 62
     3
100
AcDbCircle
 10
131.958
 20
124.18075
 30
0.0
 40
3.799999999999999
  0
LINE
  5
C5
330
20
100
AcDbEntity
  8
0
  6
Continuous
 62
     3
100
AcDbLine
 10
128.243164876
 20
124.98075
 30
0.0
 11
135.672835124
 21
124.98075
 31
0.0
  0
LINE
  5
C6
330
20
100
AcDbEntity
  8
0
  6
Continuous
 62
     3
100
AcDbLine
 10
128.243164876
 20
123.38075
 30
0.0
 11
135.672835124
 21
123.38075
 31
0.0
  0
LINE
  5
C7
330
20
100
AcDbEntity
  8
0
  6
Continuous
 62
     3
100
AcDbLine
 10
102.458
 20
112.28075
 30
0.0
 11
124.525010275
 21
123.071397149
 31
0.0
  0
LINE
  5
C8
330
20
100
AcDbEntity
  8
0
  6
Continuous
 62
     3
100
AcDbLine
 10
102.458
 20
112.28075
 30
0.0
 11
125.596282714
 21
120.179680996
 31
0.0
  0
CIRCLE
  5
C9
330
20
100
AcDbEntity
  8
0
  6
Continuous
 62
     3
100
AcDbCircle
 10
163.958
 20
156.18075
 30
0.0
 40
3.2
  0
LINE
  5
CA
330
20
100
AcDbEntity
  8
0
  6
Continuous
 62
     3
100
AcDbLine
 10
164.258
 20
154.38075
 30
0.0
 11
163.658
 21
154.38075
 31
0.0
  0
LINE
  5
CB
330
20
100
AcDbEntity
  8
0
  6
Continuous
 62
     3
100
AcDbLine
 10
162.1579999999999
 20
155.88075
 30
0.0
 11
162.1579999999999
 21
156.48075
 31
0.0
  0
LINE
  5
CC
330
20
100
AcDbEntity
  8
0
  6
Continuous
 62
     3
100
AcDbLine
 10
164.258
 20
157.98075
 30
0.0
 11
163.658
 21
157.98075
 31
0.0
  0
LINE
  5
CD
330
20
100
AcDbEntity
  8
0
  6
Continuous
 62
     3
100
AcDbLine
 10
165.758
 20
155.88075
 30
0.0
 11
165.758
 21
156.48075
 31
0.0
  0
LINE
  5
CE
330
20
100
AcDbEntity
  8
0
  6
Continuous
 62
     3
100
AcDbLine
 10
164.258
 20
157.98075
 30
0.0
 11
164.258
 21
157.38075
 31
0.0
  0
LINE
  5
CF
330
20
100
AcDbEntity
  8
0
  6
Continuous
 62
     3
100
AcDbLine
 10
165.758
 20
156.48075
 30
0.0
 11
165.158
 21
156.48075
 31
0.0
  0
LINE
  5
D0
330
20
100
AcDbEntity
  8
0
  6
Continuous
 62
     3
100
AcDbLine
 10
165.758
 20
155.88075
 30
0.0
 11
165.158
 21
155.88075
 31
0.0
  0
LINE
  5
D1
330
20
100
AcDbEntity
  8
0
  6
Continuous
 62
     3
100
AcDbLine
 10
163.658
 20
154.38075
 30
0.0
 11
163.658
 21
154.98075
 31
0.0
  0
LINE
  5
D2
330
20
100
AcDbEntity
  8
0
  6
Continuous
 62
     3
100
AcDbLine
 10
162.1579999999999
 20
156.48075
 30
0.0
 11
162.758
 21
156.48075
 31
0.0
  0
LINE
  5
D3
330
20
100
AcDbEntity
  8
0
  6
Continuous
 62
     3
100
AcDbLine
 10
164.258
 20
157.98075
 30
0.0
 11
164.258
 21
157.38075
 31
0.0
  0
LINE
  5
D4
330
20
100
AcDbEntity
  8
0
  6
Continuous
 62
     3
100
AcDbLine
 10
163.658
 20
157.98075
 30
0.0
 11
163.658
 21
157.38075
 31
0.0
  0
LINE
  5
D5
330
20
100
AcDbEntity
  8
0
  6
Continuous
 62
     3
100
AcDbLine
 10
162.1579999999999
 20
155.88075
 30
0.0
 11
162.758
 21
155.88075
 31
0.0
  0
LINE
  5
D6
330
20
100
AcDbEntity
  8
0
  6
Continuous
 62
     3
100
AcDbLine
 10
164.258
 20
154.38075
 30
0.0
 11
164.258
 21
154.98075
 31
0.0
  0
ARC
  5
D7
330
20
100
AcDbEntity
  8
0
  6
Continuous
 62
     3
100
AcDbCircle
 10
162.858
 20
157.28075
 30
0.0
 40
0.8
100
AcDbArc
 50
262.3
 51
7.699999999999999
  0
ARC
  5
D8
330
20
100
AcDbEntity
  8
0
  6
Continuous
 62
     3
100
AcDbCircle
 10
162.858
 20
155.08075
 30
0.0
 40
0.8
100
AcDbArc
 50
352.3
 51
97.70000000000001
  0
ARC
  5
D9
330
20
100
AcDbEntity
  8
0
  6
Continuous
 62
     3
100
AcDbCircle
 10
165.058
 20
155.08075
 30
0.0
 40
0.8
100
AcDbArc
 50
82.3
 51
187.7
  0
ARC
  5
DA
330
20
100
AcDbEntity
  8
0
  6
Continuous
 62
     3
100
AcDbCircle
 10
165.058
 20
157.28075
 30
0.0
 40
0.8
100
AcDbArc
 50
172.3
 51
277.7
  0
CIRCLE
  5
DB
330
20
100
AcDbEntity
  8
0
  6
Continuous
 62
     3
100
AcDbCircle
 10
163.958
 20
92.18075
 30
0.0
 40
3.2
  0
LINE
  5
DC
330
20
100
AcDbEntity
  8
0
  6
Continuous
 62
     3
100
AcDbLine
 10
164.258
 20
93.98075
 30
0.0
 11
163.658
 21
93.98075
 31
0.0
  0
LINE
  5
DD
330
20
100
AcDbEntity
  8
0
  6
Continuous
 62
     3
100
AcDbLine
 10
162.1579999999999
 20
92.48075
 30
0.0
 11
162.1579999999999
 21
91.88075000000001
 31
0.0
  0
LINE
  5
DE
330
20
100
AcDbEntity
  8
0
  6
Continuous
 62
     3
100
AcDbLine
 10
164.258
 20
90.38075
 30
0.0
 11
163.658
 21
90.38075
 31
0.0
  0
LINE
  5
DF
330
20
100
AcDbEntity
  8
0
  6
Continuous
 62
     3
100
AcDbLine
 10
165.758
 20
92.48075
 30
0.0
 11
165.758
 21
91.88075000000001
 31
0.0
  0
LINE
  5
E0
330
20
100
AcDbEntity
  8
0
  6
Continuous
 62
     3
100
AcDbLine
 10
164.258
 20
90.38075
 30
0.0
 11
164.258
 21
90.98074999999999
 31
0.0
  0
LINE
  5
E1
330
20
100
AcDbEntity
  8
0
  6
Continuous
 62
     3
100
AcDbLine
 10
165.758
 20
91.88075000000001
 30
0.0
 11
165.158
 21
91.88075000000001
 31
0.0
  0
LINE
  5
E2
330
20
100
AcDbEntity
  8
0
  6
Continuous
 62
     3
100
AcDbLine
 10
165.758
 20
92.48075
 30
0.0
 11
165.158
 21
92.48075
 31
0.0
  0
LINE
  5
E3
330
20
100
AcDbEntity
  8
0
  6
Continuous
 62
     3
100
AcDbLine
 10
163.658
 20
93.98075
 30
0.0
 11
163.658
 21
93.38075000000001
 31
0.0
  0
LINE
  5
E4
330
20
100
AcDbEntity
  8
0
  6
Continuous
 62
     3
100
AcDbLine
 10
162.1579999999999
 20
91.88075000000001
 30
0.0
 11
162.758
 21
91.88075000000001
 31
0.0
  0
LINE
  5
E5
330
20
100
AcDbEntity
  8
0
  6
Continuous
 62
     3
100
AcDbLine
 10
164.258
 20
90.38075
 30
0.0
 11
164.258
 21
90.98074999999999
 31
0.0
  0
LINE
  5
E6
330
20
100
AcDbEntity
  8
0
  6
Continuous
 62
     3
100
AcDbLine
 10
163.658
 20
90.38075
 30
0.0
 11
163.658
 21
90.98074999999999
 31
0.0
  0
LINE
  5
E7
330
20
100
AcDbEntity
  8
0
  6
Continuous
 62
     3
100
AcDbLine
 10
162.1579999999999
 20
92.48075
 30
0.0
 11
162.758
 21
92.48075
 31
0.0
  0
LINE
  5
E8
330
20
100
AcDbEntity
  8
0
  6
Continuous
 62
     3
100
AcDbLine
 10
164.258
 20
93.98075
 30
0.0
 11
164.258
 21
93.38075000000001
 31
0.0
  0
ARC
  5
E9
330
20
100
AcDbEntity
  8
0
  6
Continuous
 62
     3
100
AcDbCircle
 10
162.858
 20
91.08074999999999
 30
0.0
 40
0.8
100
AcDbArc
 50
352.3
 51
97.70000000000001
  0
ARC
  5
EA
330
20
100
AcDbEntity
  8
0
  6
Continuous
 62
     3
100
AcDbCircle
 10
162.858
 20
93.28075
 30
0.0
 40
0.8
100
AcDbArc
 50
262.3
 51
7.699999999999999
  0
ARC
  5
EB
330
20
100
AcDbEntity
  8
0
  6
Continuous
 62
     3
100
AcDbCircle
 10
165.058
 20
93.28075
 30
0.0
 40
0.8
100
AcDbArc
 50
172.3
 51
277.7
  0
ARC
  5
EC
330
20
100
AcDbEntity
  8
0
  6
Continuous
 62
     3
100
AcDbCircle
 10
165.058
 20
91.08074999999999
 30
0.0
 40
0.8
100
AcDbArc
 50
82.3
 51
187.7
  0
CIRCLE
  5
ED
330
20
100
AcDbEntity
  8
0
  6
Continuous
 62
     3
100
AcDbCircle
 10
99.958
 20
156.18075
 30
0.0
 40
3.2
  0
LINE
  5
EE
330
20
100
AcDbEntity
  8
0
  6
Continuous
 62
     3
100
AcDbLine
 10
99.65799999999999
 20
154.38075
 30
0.0
 11
100.258
 21
154.38075
 31
0.0
  0
LINE
  5
EF
330
20
100
AcDbEntity
  8
0
  6
Continuous
 62
     3
100
AcDbLine
 10
101.758
 20
155.88075
 30
0.0
 11
101.758
 21
156.48075
 31
0.0
  0
LINE
  5
F0
330
20
100
AcDbEntity
  8
0
  6
Continuous
 62
     3
100
AcDbLine
 10
99.65799999999999
 20
157.98075
 30
0.0
 11
100.258
 21
157.98075
 31
0.0
  0
LINE
  5
F1
330
20
100
AcDbEntity
  8
0
  6
Continuous
 62
     3
100
AcDbLine
 10
98.15799999999999
 20
155.88075
 30
0.0
 11
98.15799999999999
 21
156.48075
 31
0.0
  0
LINE
  5
F2
330
20
100
AcDbEntity
  8
0
  6
Continuous
 62
     3
100
AcDbLine
 10
99.65799999999999
 20
157.98075
 30
0.0
 11
99.65799999999999
 21
157.38075
 31
0.0
  0
LINE
  5
F3
330
20
100
AcDbEntity
  8
0
  6
Continuous
 62
     3
100
AcDbLine
 10
98.15799999999999
 20
156.48075
 30
0.0
 11
98.75799999999999
 21
156.48075
 31
0.0
  0
LINE
  5
F4
330
20
100
AcDbEntity
  8
0
  6
Continuous
 62
     3
100
AcDbLine
 10
98.15799999999999
 20
155.88075
 30
0.0
 11
98.75799999999999
 21
155.88075
 31
0.0
  0
LINE
  5
F5
330
20
100
AcDbEntity
  8
0
  6
Continuous
 62
     3
100
AcDbLine
 10
100.258
 20
154.38075
 30
0.0
 11
100.258
 21
154.98075
 31
0.0
  0
LINE
  5
F6
330
20
100
AcDbEntity
  8
0
  6
Continuous
 62
     3
100
AcDbLine
 10
101.758
 20
156.48075
 30
0.0
 11
101.158
 21
156.48075
 31
0.0
  0
LINE
  5
F7
330
20
100
AcDbEntity
  8
0
  6
Continuous
 62
     3
100
AcDbLine
 10
99.65799999999999
 20
157.98075
 30
0.0
 11
99.65799999999999
 21
157.38075
 31
0.0
  0
LINE
  5
F8
330
20
100
AcDbEntity
  8
0
  6
Continuous
 62
     3
100
AcDbLine
 10
100.258
 20
157.98075
 30
0.0
 11
100.258
 21
157.38075
 31
0.0
  0
LINE
  5
F9
330
20
100
AcDbEntity
  8
0
  6
Continuous
 62
     3
100
AcDbLine
 10
101.758
 20
155.88075
 30
0.0
 11
101.158
 21
155.88075
 31
0.0
  0
LINE
  5
FA
330
20
100
AcDbEntity
  8
0
  6
Continuous
 62
     3
100
AcDbLine
 10
99.65799999999999
 20
154.38075
 30
0.0
 11
99.65799999999999
 21
154.98075
 31
0.0
  0
ARC
  5
FB
330
20
100
AcDbEntity
  8
0
  6
Continuous
 62
     3
100
AcDbCircle
 10
101.058
 20
157.28075
 30
0.0
 40
0.8
100
AcDbArc
 50
172.3
 51
277.7
  0
ARC
  5
FC
330
20
100
AcDbEntity
  8
0
  6
Continuous
 62
     3
100
AcDbCircle
 10
101.058
 20
155.08075
 30
0.0
 40
0.8
100
AcDbArc
 50
82.3
 51
187.7
  0
ARC
  5
FD
330
20
100
AcDbEntity
  8
0
  6
Continuous
 62
     3
100
AcDbCircle
 10
98.85799999999999
 20
155.08075
 30
0.0
 40
0.8
100
AcDbArc
 50
352.3
 51
97.70000000000001
  0
ARC
  5
FE
330
20
100
AcDbEntity
  8
0
  6
Continuous
 62
     3
100
AcDbCircle
 10
98.85799999999999
 20
157.28075
 30
0.0
 40
0.8
100
AcDbArc
 50
262.3
 51
7.699999999999999
  0
CIRCLE
  5
FF
330
20
100
AcDbEntity
  8
0
  6
Continuous
 62
     3
100
AcDbCircle
 10
99.958
 20
92.18075
 30
0.0
 40
3.2
  0
LINE
  5
100
330
20
100
AcDbEntity
  8
0
  6
Continuous
 62
     3
100
AcDbLine
 10
99.65799999999999
 20
93.98075
 30
0.0
 11
100.258
 21
93.98075
 31
0.0
  0
LINE
  5
101
330
20
100
AcDbEntity
  8
0
  6
Continuous
 62
     3
100
AcDbLine
 10
101.758
 20
92.48075
 30
0.0
 11
101.758
 21
91.88075000000001
 31
0.0
  0
LINE
  5
102
330
20
100
AcDbEntity
  8
0
  6
Continuous
 62
     3
100
AcDbLine
 10
99.65799999999999
 20
90.38075
 30
0.0
 11
100.258
 21
90.38075
 31
0.0
  0
LINE
  5
103
330
20
100
AcDbEntity
  8
0
  6
Continuous
 62
     3
100
AcDbLine
 10
98.15799999999999
 20
92.48075
 30
0.0
 11
98.15799999999999
 21
91.88075000000001
 31
0.0
  0
LINE
  5
104
330
20
100
AcDbEntity
  8
0
  6
Continuous
 62
     3
100
AcDbLine
 10
99.65799999999999
 20
90.38075
 30
0.0
 11
99.65799999999999
 21
90.98074999999999
 31
0.0
  0
LINE
  5
105
330
20
100
AcDbEntity
  8
0
  6
Continuous
 62
     3
100
AcDbLine
 10
98.15799999999999
 20
91.88075000000001
 30
0.0
 11
98.75799999999999
 21
91.88075000000001
 31
0.0
  0
LINE
  5
106
330
20
100
AcDbEntity
  8
0
  6
Continuous
 62
     3
100
AcDbLine
 10
98.15799999999999
 20
92.48075
 30
0.0
 11
98.75799999999999
 21
92.48075
 31
0.0
  0
LINE
  5
107
330
20
100
AcDbEntity
  8
0
  6
Continuous
 62
     3
100
AcDbLine
 10
100.258
 20
93.98075
 30
0.0
 11
100.258
 21
93.38075000000001
 31
0.0
  0
LINE
  5
108
330
20
100
AcDbEntity
  8
0
  6
Continuous
 62
     3
100
AcDbLine
 10
101.758
 20
91.88075000000001
 30
0.0
 11
101.158
 21
91.88075000000001
 31
0.0
  0
LINE
  5
109
330
20
100
AcDbEntity
  8
0
  6
Continuous
 62
     3
100
AcDbLine
 10
99.65799999999999
 20
90.38075
 30
0.0
 11
99.65799999999999
 21
90.98074999999999
 31
0.0
  0
LINE
  5
10A
330
20
100
AcDbEntity
  8
0
  6
Continuous
 62
     3
100
AcDbLine
 10
100.258
 20
90.38075
 30
0.0
 11
100.258
 21
90.98074999999999
 31
0.0
  0
LINE
  5
10B
330
20
100
AcDbEntity
  8
0
  6
Continuous
 62
     3
100
AcDbLine
 10
101.758
 20
92.48075
 30
0.0
 11
101.158
 21
92.48075
 31
0.0
  0
LINE
  5
10C
330
20
100
AcDbEntity
  8
0
  6
Continuous
 62
     3
100
AcDbLine
 10
99.65799999999999
 20
93.98075
 30
0.0
 11
99.65799999999999
 21
93.38075000000001
 31
0.0
  0
ARC
  5
10D
330
20
100
AcDbEntity
  8
0
  6
Continuous
 62
     3
100
AcDbCircle
 10
101.058
 20
91.08074999999999
 30
0.0
 40
0.8
100
AcDbArc
 50
82.3
 51
187.7
  0
ARC
  5
10E
330
20
100
AcDbEntity
  8
0
  6
Continuous
 62
     3
100
AcDbCircle
 10
101.058
 20
93.28075
 30
0.0
 40
0.8
100
AcDbArc
 50
172.3
 51
277.7
  0
ARC
  5
10F
330
20
100
AcDbEntity
  8
0
  6
Continuous
 62
     3
100
AcDbCircle
 10
98.85799999999999
 20
93.28075
 30
0.0
 40
0.8
100
AcDbArc
 50
262.3
 51
7.699999999999999
  0
ARC
  5
110
330
20
100
AcDbEntity
  8
0
  6
Continuous
 62
     3
100
AcDbCircle
 10
98.85799999999999
 20
91.08074999999999
 30
0.0
 40
0.8
100
AcDbArc
 50
352.3
 51
97.70000000000001
  0
LINE
  5
111
330
20
100
AcDbEntity
  8
0
  6
Continuous
 62
     3
100
AcDbLine
 10
110.698361349
 20
153.34550238
 30
0.0
 11
109.198361349
 21
155.24550238
 31
0.0
  0
LINE
  5
112
330
20
100
AcDbEntity
  8
0
  6
Continuous
 62
     3
100
AcDbLine
 10
109.198361349
 20
155.24550238
 30
0.0
 11
110.898361349
 21
156.44550238
 31
0.0
  0
LINE
  5
113
330
20
100
AcDbEntity
  8
0
  6
Continuous
 62
     3
100
AcDbLine
 10
110.898361349
 20
156.44550238
 30
0.0
 11
112.898361349
 21
153.84550238
 31
0.0
  0
LINE
  5
114
330
20
100
AcDbEntity
  8
0
  6
Continuous
 62
     3
100
AcDbLine
 10
112.898361349
 20
153.84550238
 30
0.0
 11
110.698361349
 21
153.34550238
 31
0.0
  0
LINE
  5
115
330
20
100
AcDbEntity
  8
0
  6
Continuous
 62
     3
100
AcDbLine
 10
153.217638651
 20
153.34550238
 30
0.0
 11
154.717638651
 21
155.24550238
 31
0.0
  0
LINE
  5
116
330
20
100
AcDbEntity
  8
0
  6
Continuous
 62
     3
100
AcDbLine
 10
154.717638651
 20
155.24550238
 30
0.0
 11
153.017638651
 21
156.44550238
 31
0.0
  0
LINE
  5
117
330
20
100
AcDbEntity
  8
0
  6
Continuous
 62
     3
100
AcDbLine
 10
153.017638651
 20
156.44550238
 30
0.0
 11
151.017638651
 21
153.84550238
 31
0.0
  0
LINE
  5
118
330
20
100
AcDbEntity
  8
0
  6
Continuous
 62
     3
100
AcDbLine
 10
151.017638651
 20
153.84550238
 30
0.0
 11
153.217638651
 21
153.34550238
 31
0.0
  0
CIRCLE
  5
119
330
20
100
AcDbEntity
  8
0
  6
Continuous
 62
     3
100
AcDbCircle
 10
142.058
 20
96.15082220799999
 30
0.0
 40
4.667676081
  0
CIRCLE
  5
11A
330
20
100
AcDbEntity
  8
0
  6
Continuous
 62
     3
100
AcDbCircle
 10
142.058
 20
96.15082220799999
 30
0.0
 40
2.951609729999999
  0
CIRCLE
  5
11B
330
20
100
AcDbEntity
  8
0
  6
Continuous
 62
     3
100
AcDbCircle
 10
142.058
 20
96.15082220799999
 30
0.0
 40
3.168090907999999
  0
CIRCLE
  5
11C
330
20
100
AcDbEntity
  8
0
  6
Continuous
 62
     3
100
AcDbCircle
 10
121.858
 20
96.15082220799999
 30
0.0
 40
4.667676081
  0
CIRCLE
  5
11D
330
20
100
AcDbEntity
  8
0
  6
Continuous
 62
     3
100
AcDbCircle
 10
121.858
 20
96.15082220799999
 30
0.0
 40
2.951609729999999
  0
CIRCLE
  5
11E
330
20
100
AcDbEntity
  8
0
  6
Continuous
 62
     3
100
AcDbCircle
 10
121.858
 20
96.15082220799999
 30
0.0
 40
3.168090907999999
  0
CIRCLE
  5
11F
330
20
100
AcDbEntity
  8
0
  6
Continuous
 62
     3
100
AcDbCircle
 10
139.858
 20
103.209932221
 30
0.0
 40
1.28
  0
LINE
  5
120
330
20
100
AcDbEntity
  8
0
  6
Continuous
 62
     3
100
AcDbLine
 10
140.578
 20
103.089932221
 30
0.0
 11
140.578
 21
103.329932221
 31
0.0
  0
LINE
  5
121
330
20
100
AcDbEntity
  8
0
  6
Continuous
 62
     3
100
AcDbLine
 10
139.978
 20
103.929932221
 30
0.0
 11
139.738
 21
103.929932221
 31
0.0
  0
LINE
  5
122
330
20
100
AcDbEntity
  8
0
  6
Continuous
 62
     3
100
AcDbLine
 10
139.138
 20
103.089932221
 30
0.0
 11
139.138
 21
103.329932221
 31
0.0
  0
LINE
  5
123
330
20
100
AcDbEntity
  8
0
  6
Continuous
 62
     3
100
AcDbLine
 10
139.978
 20
102.489932221
 30
0.0
 11
139.738
 21
102.489932221
 31
0.0
  0
LINE
  5
124
330
20
100
AcDbEntity
  8
0
  6
Continuous
 62
     3
100
AcDbLine
 10
139.138
 20
103.089932221
 30
0.0
 11
139.378
 21
103.089932221
 31
0.0
  0
LINE
  5
125
330
20
100
AcDbEntity
  8
0
  6
Continuous
 62
     3
100
AcDbLine
 10
139.738
 20
102.489932221
 30
0.0
 11
139.738
 21
102.729932221
 31
0.0
  0
LINE
  5
126
330
20
100
AcDbEntity
  8
0
  6
Continuous
 62
     3
100
AcDbLine
 10
139.978
 20
102.489932221
 30
0.0
 11
139.978
 21
102.729932221
 31
0.0
  0
LINE
  5
127
330
20
100
AcDbEntity
  8
0
  6
Continuous
 62
     3
100
AcDbLine
 10
140.578
 20
103.329932221
 30
0.0
 11
140.338
 21
103.329932221
 31
0.0
  0
LINE
  5
128
330
20
100
AcDbEntity
  8
0
  6
Continuous
 62
     3
100
AcDbLine
 10
139.738
 20
103.929932221
 30
0.0
 11
139.738
 21
103.689932221
 31
0.0
  0
LINE
  5
129
330
20
100
AcDbEntity
  8
0
  6
Continuous
 62
     3
100
AcDbLine
 10
139.138
 20
103.089932221
 30
0.0
 11
139.378
 21
103.089932221
 31
0.0
  0
LINE
  5
12A
330
20
100
AcDbEntity
  8
0
  6
Continuous
 62
     3
100
AcDbLine
 10
139.138
 20
103.329932221
 30
0.0
 11
139.378
 21
103.329932221
 31
0.0
  0
LINE
  5
12B
330
20
100
AcDbEntity
  8
0
  6
Continuous
 62
     3
100
AcDbLine
 10
139.978
 20
103.929932221
 30
0.0
 11
139.978
 21
103.689932221
 31
0.0
  0
LINE
  5
12C
330
20
100
AcDbEntity
  8
0
  6
Continuous
 62
     3
100
AcDbLine
 10
140.578
 20
103.089932221
 30
0.0
 11
140.338
 21
103.089932221
 31
0.0
  0
ARC
  5
12D
330
20
100
AcDbEntity
  8
0
  6
Continuous
 62
     3
100
AcDbCircle
 10
139.418
 20
103.649932221
 30
0.0
 40
0.32
100
AcDbArc
 50
262.3
 51
7.699999999999999
  0
ARC
  5
12E
330
20
100
AcDbEntity
  8
0
  6
Continuous
 62
     3
100
AcDbCircle
 10
140.298
 20
103.649932221
 30
0.0
 40
0.32
100
AcDbArc
 50
172.3
 51
277.7
  0
ARC
  5
12F
330
20
100
AcDbEntity
  8
0
  6
Continuous
 62
     3
100
AcDbCircle
 10
140.298
 20
102.769932221
 30
0.0
 40
0.32
100
AcDbArc
 50
82.3
 51
187.7
  0
ARC
  5
130
330
20
100
AcDbEntity
  8
0
  6
Continuous
 62
     3
100
AcDbCircle
 10
139.418
 20
102.769932221
 30
0.0
 40
0.32
100
AcDbArc
 50
352.3
 51
97.70000000000001
  0
CIRCLE
  5
131
330
20
100
AcDbEntity
  8
0
  6
Continuous
 62
     3
100
AcDbCircle
 10
124.058
 20
103.209932221
 30
0.0
 40
1.28
  0
LINE
  5
132
330
20
100
AcDbEntity
  8
0
  6
Continuous
 62
     3
100
AcDbLine
 10
123.338
 20
103.089932221
 30
0.0
 11
123.338
 21
103.329932221
 31
0.0
  0
LINE
  5
133
330
20
100
AcDbEntity
  8
0
  6
Continuous
 62
     3
100
AcDbLine
 10
123.938
 20
103.929932221
 30
0.0
 11
124.178
 21
103.929932221
 31
0.0
  0
LINE
  5
134
330
20
100
AcDbEntity
  8
0
  6
Continuous
 62
     3
100
AcDbLine
 10
124.778
 20
103.089932221
 30
0.0
 11
124.778
 21
103.329932221
 31
0.0
  0
LINE
  5
135
330
20
100
AcDbEntity
  8
0
  6
Continuous
 62
     3
100
AcDbLine
 10
123.938
 20
102.489932221
 30
0.0
 11
124.178
 21
102.489932221
 31
0.0
  0
LINE
  5
136
330
20
100
AcDbEntity
  8
0
  6
Continuous
 62
     3
100
AcDbLine
 10
124.778
 20
103.089932221
 30
0.0
 11
124.538
 21
103.089932221
 31
0.0
  0
LINE
  5
137
330
20
100
AcDbEntity
  8
0
  6
Continuous
 62
     3
100
AcDbLine
 10
124.178
 20
102.489932221
 30
0.0
 11
124.178
 21
102.729932221
 31
0.0
  0
LINE
  5
138
330
20
100
AcDbEntity
  8
0
  6
Continuous
 62
     3
100
AcDbLine
 10
123.938
 20
102.489932221
 30
0.0
 11
123.938
 21
102.729932221
 31
0.0
  0
LINE
  5
139
330
20
100
AcDbEntity
  8
0
  6
Continuous
 62
     3
100
AcDbLine
 10
123.338
 20
103.329932221
 30
0.0
 11
123.578
 21
103.329932221
 31
0.0
  0
LINE
  5
13A
330
20
100
AcDbEntity
  8
0
  6
Continuous
 62
     3
100
AcDbLine
 10
124.178
 20
103.929932221
 30
0.0
 11
124.178
 21
103.689932221
 31
0.0
  0
LINE
  5
13B
330
20
100
AcDbEntity
  8
0
  6
Continuous
 62
     3
100
AcDbLine
 10
124.778
 20
103.089932221
 30
0.0
 11
124.538
 21
103.089932221
 31
0.0
  0
LINE
  5
13C
330
20
100
AcDbEntity
  8
0
  6
Continuous
 62
     3
100
AcDbLine
 10
124.778
 20
103.329932221
 30
0.0
 11
124.538
 21
103.329932221
 31
0.0
  0
LINE
  5
13D
330
20
100
AcDbEntity
  8
0
  6
Continuous
 62
     3
100
AcDbLine
 10
123.938
 20
103.929932221
 30
0.0
 11
123.938
 21
103.689932221
 31
0.0
  0
LINE
  5
13E
330
20
100
AcDbEntity
  8
0
  6
Continuous
 62
     3
100
AcDbLine
 10
123.338
 20
103.089932221
 30
0.0
 11
123.578
 21
103.089932221
 31
0.0
  0
ARC
  5
13F
330
20
100
AcDbEntity
  8
0
  6
Continuous
 62
     3
100
AcDbCircle
 10
124.498
 20
103.649932221
 30
0.0
 40
0.32
100
AcDbArc
 50
172.3
 51
277.7
  0
ARC
  5
140
330
20
100
AcDbEntity
  8
0
  6
Continuous
 62
     3
100
AcDbCircle
 10
123.618
 20
103.649932221
 30
0.0
 40
0.32
100
AcDbArc
 50
262.3
 51
7.699999999999999
  0
ARC
  5
141
330
20
100
AcDbEntity
  8
0
  6
Continuous
 62
     3
100
AcDbCircle
 10
123.618
 20
102.769932221
 30
0.0
 40
0.32
100
AcDbArc
 50
352.3
 51
97.70000000000001
  0
ARC
  5
142
330
20
100
AcDbEntity
  8
0
  6
Continuous
 62
     3
100
AcDbCircle
 10
124.498
 20
102.769932221
 30
0.0
 40
0.32
100
AcDbArc
 50
82.3
 51
187.7
  0
CIRCLE
  5
143
330
20
100
AcDbEntity
  8
0
  6
Continuous
 62
     3
100
AcDbCircle
 10
131.958
 20
124.18075
 30
0.0
 40
7.515317690999999
  0
CIRCLE
  5
144
330
20
100
AcDbEntity
  8
0
  6
Continuous
 62
     3
100
AcDbCircle
 10
131.958
 20
124.18075
 30
0.0
 40
6.82191727
  0
CIRCLE
  5
145
330
20
100
AcDbEntity
  8
0
  6
Continuous
 62
     3
100
AcDbCircle
 10
131.958
 20
124.18075
 30
0.0
 40
6.099999999999999
  0
CIRCLE
  5
146
330
20
100
AcDbEntity
  8
0
  6
Continuous
 62
     3
100
AcDbCircle
 10
131.958
 20
124.18075
 30
0.0
 40
5.403702433999999
  0
CIRCLE
  5
147
330
20
100
AcDbEntity
  8
0
  6
Continuous
 62
     3
100
AcDbCircle
 10
131.958
 20
124.18075
 30
0.0
 40
4.609772228999999
  0
CIRCLE
  5
148
330
20
100
AcDbEntity
  8
0
  6
Continuous
 62
     3
100
AcDbCircle
 10
131.958
 20
124.18075
 30
0.0
 40
3.799999999999999
  0
LINE
  5
149
330
20
100
AcDbEntity
  8
0
  6
Continuous
 62
     3
100
AcDbLine
 10
128.243164876
 20
124.98075
 30
0.0
 11
135.672835124
 21
124.98075
 31
0.0
  0
LINE
  5
14A
330
20
100
AcDbEntity
  8
0
  6
Continuous
 62
     3
100
AcDbLine
 10
128.243164876
 20
123.38075
 30
0.0
 11
135.672835124
 21
123.38075
 31
0.0
  0
LINE
  5
14B
330
20
100
AcDbEntity
  8
0
  6
Continuous
 62
     3
100
AcDbLine
 10
102.458
 20
112.28075
 30
0.0
 11
124.525010275
 21
123.071397149
 31
0.0
  0
LINE
  5
14C
330
20
100
AcDbEntity
  8
0
  6
Continuous
 62
     3
100
AcDbLine
 10
102.458
 20
112.28075
 30
0.0
 11
125.596282714
 21
120.179680996
 31
0.0
  0
LINE
  5
14D
330
20
100
AcDbEntity
  8
0
  6
Continuous
 62
     3
100
AcDbLine
 10
105.529505032
 20
108.922251316
 30
0.0
 11
100.929505032
 21
106.266440077
 31
0.0
  0
LINE
  5
14E
330
20
100
AcDbEntity
  8
0
  6
Continuous
 62
     3
100
AcDbLine
 10
158.386494968
 20
108.922251316
 30
0.0
 11
162.986494968
 21
106.266440077
 31
0.0
  0
LINE
  5
14F
330
20
100
AcDbEntity
  8
0
  6
Continuous
 62
     3
100
AcDbLine
 10
101.608177936
 20
120.990855162
 30
0.0
 11
96.325653083
 21
120.435639427
 31
0.0
  0
LINE
  5
150
330
20
100
AcDbEntity
  8
0
  6
Continuous
 62
     3
100
AcDbLine
 10
102.934610795
 20
133.611020804
 30
0.0
 11
97.88295762700002
 21
135.252402417
 31
0.0
  0
LINE
  5
151
330
20
100
AcDbEntity
  8
0
  6
Continuous
 62
     3
100
AcDbLine
 10
109.279451316
 20
144.600606953
 30
0.0
 11
105.332146558
 21
148.154776122
 31
0.0
  0
LINE
  5
152
330
20
100
AcDbEntity
  8
0
  6
Continuous
 62
     3
100
AcDbLine
 10
119.545618934
 20
152.059414327
 30
0.0
 11
117.385187438
 21
156.911822913
 31
0.0
  0
LINE
  5
153
330
20
100
AcDbEntity
  8
0
  6
Continuous
 62
     3
100
AcDbLine
 10
131.958
 20
154.697747368
 30
0.0
 11
131.958
 21
160.009369845
 31
0.0
  0
LINE
  5
154
330
20
100
AcDbEntity
  8
0
  6
Continuous
 62
     3
100
AcDbLine
 10
144.370381066
 20
152.059414327
 30
0.0
 11
146.530812562
 21
156.911822913
 31
0.0
  0
LINE
  5
155
330
20
100
AcDbEntity
  8
0
  6
Continuous
 62
     3
100
AcDbLine
 10
154.636548683
 20
144.600606953
 30
0.0
 11
158.583853442
 21
148.154776122
 31
0.0
  0
LINE
  5
156
330
20
100
AcDbEntity
  8
0
  6
Continuous
 62
     3
100
AcDbLine
 10
160.981389205
 20
133.611020804
 30
0.0
 11
166.033042373
 21
135.252402417
 31
0.0
  0
LINE
  5
157
330
20
100
AcDbEntity
  8
0
  6
Continuous
 62
     3
100
AcDbLine
 10
162.307822064
 20
120.990855162
 30
0.0
 11
167.590346917
 21
120.435639427
 31
0.0
  0
LINE
  5
158
330
20
100
AcDbEntity
  8
0
  6
Continuous
 62
     3
100
AcDbLine
 10
269.558
 20
124.18075
 30
0.0
 11
269.558
 21
164.18075
 31
0.0
  0
LINE
  5
159
330
20
100
AcDbEntity
  8
0
  6
Continuous
 62
     3
100
AcDbLine
 10
269.558
 20
164.18075
 30
0.0
 11
260.558
 21
164.18075
 31
0.0
  0
LINE
  5
15A
330
20
100
AcDbEntity
  8
0
  6
Continuous
 62
     3
100
AcDbLine
 10
260.558
 20
164.18075
 30
0.0
 11
260.558
 21
124.18075
 31
0.0
  0
LINE
  5
15B
330
20
100
AcDbEntity
  8
0
  6
Continuous
 62
     3
100
AcDbLine
 10
269.558
 20
124.18075
 30
0.0
 11
269.558
 21
84.18074999999999
 31
0.0
  0
LINE
  5
15C
330
20
100
AcDbEntity
  8
0
  6
Continuous
 62
     3
100
AcDbLine
 10
269.558
 20
84.18074999999999
 30
0.0
 11
260.558
 21
84.18074999999999
 31
0.0
  0
LINE
  5
15D
330
20
100
AcDbEntity
  8
0
  6
Continuous
 62
     3
100
AcDbLine
 10
260.558
 20
84.18074999999999
 30
0.0
 11
260.558
 21
124.18075
 31
0.0
  0
ARC
  5
15E
330
20
100
AcDbEntity
  8
0
  6
Continuous
 62
     3
100
AcDbCircle
 10
375.373141594
 20
124.164245889
 30
0.0
 40
121.81401806
100
AcDbArc
 50
161.199987632
 51
198.7540660209999
  0
ARC
  5
15F
330
20
100
AcDbEntity
  8
0
  6
Continuous
 62
     3
100
AcDbCircle
 10
260.558
 20
163.18075
 30
0.0
 40
0.583095189
100
AcDbArc
 50
89.99958278900001
 51
154.358994176
  0
ARC
  5
160
330
20
100
AcDbEntity
  8
0
  6
Continuous
 62
     3
100
AcDbCircle
 10
260.558
 20
85.18075000000001
 30
0.0
 40
0.583095189
100
AcDbArc
 50
198.761790588
 51
270.000322459
  0
LINE
  5
161
330
20
100
AcDbEntity
  8
0
  6
Continuous
 62
     3
100
AcDbLine
 10
284.558
 20
155.08075
 30
0.0
 11
284.558
 21
157.28075
 31
0.0
  0
LINE
  5
162
330
20
100
AcDbEntity
  8
0
  6
Continuous
 62
     3
100
AcDbLine
 10
284.258
 20
157.68075
 30
0.0
 11
284.258
 21
154.68075
 31
0.0
  0
LINE
  5
163
330
20
100
AcDbEntity
  8
0
  6
Continuous
 62
     3
100
AcDbLine
 10
284.258
 20
157.68075
 30
0.0
 11
284.558
 21
157.28075
 31
0.0
  0
LINE
  5
164
330
20
100
AcDbEntity
  8
0
  6
Continuous
 62
     3
100
AcDbLine
 10
284.558
 20
155.08075
 30
0.0
 11
284.258
 21
154.68075
 31
0.0
  0
LINE
  5
165
330
20
100
AcDbEntity
  8
0
  6
Continuous
 62
     3
100
AcDbLine
 10
269.558
 20
157.68075
 30
0.0
 11
284.258
 21
157.68075
 31
0.0
  0
LINE
  5
166
330
20
100
AcDbEntity
  8
0
  6
Continuous
 62
     3
100
AcDbLine
 10
269.558
 20
154.68075
 30
0.0
 11
284.258
 21
154.68075
 31
0.0
  0
LINE
  5
167
330
20
100
AcDbEntity
  8
0
  6
Continuous
 62
     3
100
AcDbLine
 10
284.558
 20
93.28075
 30
0.0
 11
284.558
 21
91.08074999999999
 31
0.0
  0
LINE
  5
168
330
20
100
AcDbEntity
  8
0
  6
Continuous
 62
     3
100
AcDbLine
 10
284.258
 20
90.68075
 30
0.0
 11
284.258
 21
93.68075000000001
 31
0.0
  0
LINE
  5
169
330
20
100
AcDbEntity
  8
0
  6
Continuous
 62
     3
100
AcDbLine
 10
284.258
 20
90.68075
 30
0.0
 11
284.558
 21
91.08074999999999
 31
0.0
  0
LINE
  5
16A
330
20
100
AcDbEntity
  8
0
  6
Continuous
 62
     3
100
AcDbLine
 10
284.558
 20
93.28075
 30
0.0
 11
284.258
 21
93.68075000000001
 31
0.0
  0
LINE
  5
16B
330
20
100
AcDbEntity
  8
0
  6
Continuous
 62
     3
100
AcDbLine
 10
269.558
 20
90.68075
 30
0.0
 11
284.258
 21
90.68075
 31
0.0
  0
LINE
  5
16C
330
20
100
AcDbEntity
  8
0
  6
Continuous
 62
     3
100
AcDbLine
 10
269.558
 20
93.68075000000001
 30
0.0
 11
284.258
 21
93.68075000000001
 31
0.0
  0
LINE
  5
16D
330
20
100
AcDbEntity
  8
0
  6
Continuous
 62
     3
100
AcDbLine
 10
380.7580000000001
 20
124.18075
 30
0.0
 11
380.7580000000001
 21
158.18075
 31
0.0
  0
ARC
  5
16E
330
20
100
AcDbEntity
  8
0
  6
Continuous
 62
     3
100
AcDbCircle
 10
379.758
 20
158.18075
 30
0.0
 40
1.0
100
AcDbArc
 50
0.0
 51
90.0
  0
LINE
  5
16F
330
20
100
AcDbEntity
  8
0
  6
Continuous
 62
     3
100
AcDbLine
 10
380.7580000000001
 20
124.18075
 30
0.0
 11
380.7580000000001
 21
90.18075000000001
 31
0.0
  0
ARC
  5
170
330
20
100
AcDbEntity
  8
0
  6
Continuous
 62
     3
100
AcDbCircle
 10
379.758
 20
90.18075000000001
 30
0.0
 40
1.0
100
AcDbArc
 50
270.0
 51
0.0
  0
LINE
  5
171
330
20
100
AcDbEntity
  8
0
  6
Continuous
 62
     3
100
AcDbLine
 10
379.758
 20
89.18074999999999
 30
0.0
 11
269.558
 21
89.18074999999999
 31
0.0
  0
LINE
  5
172
330
20
100
AcDbEntity
  8
0
  6
Continuous
 62
     3
100
AcDbLine
 10
379.758
 20
159.1807499999999
 30
0.0
 11
269.558
 21
159.1807499999999
 31
0.0
  0
LINE
  5
173
330
20
100
AcDbEntity
  8
0
  6
Continuous
 62
     3
100
AcDbLine
 10
388.558
 20
128.18075
 30
0.0
 11
388.558
 21
120.18075
 31
0.0
  0
POINT
  5
174
330
20
100
AcDbEntity
  8
0
  6
Continuous
 62
     3
100
AcDbPoint
 10
388.558
 20
128.18075
 30
0.0
  0
ARC
  5
175
330
20
100
AcDbEntity
  8
0
  6
Continuous
 62
     3
100
AcDbCircle
 10
388.558
 20
125.98075
 30
0.0
 40
2.2
100
AcDbArc
 50
0.0
 51
90.0
  0
LINE
  5
176
330
20
100
AcDbEntity
  8
0
  6
Continuous
 62
     3
100
AcDbLine
 10
390.758
 20
125.98075
 30
0.0
 11
390.758
 21
122.38075
 31
0.0
  0
ARC
  5
177
330
20
100
AcDbEntity
  8
0
  6
Continuous
 62
     3
100
AcDbCircle
 10
388.558
 20
122.38075
 30
0.0
 40
2.2
100
AcDbArc
 50
270.0
 51
0.0
  0
POINT
  5
178
330
20
100
AcDbEntity
  8
0
  6
Continuous
 62
     3
100
AcDbPoint
 10
388.558
 20
120.18075
 30
0.0
  0
LINE
  5
179
330
20
100
AcDbEntity
  8
0
  6
Continuous
 62
     3
100
AcDbLine
 10
388.558
 20
128.18075
 30
0.0
 11
387.658
 21
128.18075
 31
0.0
  0
LINE
  5
17A
330
20
100
AcDbEntity
  8
0
  6
Continuous
 62
     3
100
AcDbLine
 10
387.658
 20
128.18075
 30
0.0
 11
387.658
 21
124.18075
 31
0.0
  0
LINE
  5
17B
330
20
100
AcDbEntity
  8
0
  6
Continuous
 62
     3
100
AcDbLine
 10
387.658
 20
128.18075
 30
0.0
 11
382.0580000000001
 21
128.18075
 31
0.0
  0
LINE
  5
17C
330
20
100
AcDbEntity
  8
0
  6
Continuous
 62
     3
100
AcDbLine
 10
382.0580000000001
 20
124.18075
 30
0.0
 11
382.0580000000001
 21
128.68075
 31
0.0
  0
LINE
  5
17D
330
20
100
AcDbEntity
  8
0
  6
Continuous
 62
     3
100
AcDbLine
 10
382.0580000000001
 20
128.68075
 30
0.0
 11
380.7580000000001
 21
128.68075
 31
0.0
  0
LINE
  5
17E
330
20
100
AcDbEntity
  8
0
  6
Continuous
 62
     3
100
AcDbLine
 10
388.558
 20
120.18075
 30
0.0
 11
387.658
 21
120.18075
 31
0.0
  0
LINE
  5
17F
330
20
100
AcDbEntity
  8
0
  6
Continuous
 62
     3
100
AcDbLine
 10
387.658
 20
120.18075
 30
0.0
 11
387.658
 21
124.18075
 31
0.0
  0
LINE
  5
180
330
20
100
AcDbEntity
  8
0
  6
Continuous
 62
     3
100
AcDbLine
 10
387.658
 20
120.18075
 30
0.0
 11
382.0580000000001
 21
120.18075
 31
0.0
  0
LINE
  5
181
330
20
100
AcDbEntity
  8
0
  6
Continuous
 62
     3
100
AcDbLine
 10
382.0580000000001
 20
124.18075
 30
0.0
 11
382.0580000000001
 21
119.68075
 31
0.0
  0
LINE
  5
182
330
20
100
AcDbEntity
  8
0
  6
Continuous
 62
     3
100
AcDbLine
 10
382.0580000000001
 20
119.68075
 30
0.0
 11
380.7580000000001
 21
119.68075
 31
0.0
  0
LINE
  5
183
330
20
100
AcDbEntity
  8
0
  6
Continuous
 62
     3
100
AcDbLine
 10
380.7580000000001
 20
151.68075
 30
0.0
 11
388.558
 21
151.68075
 31
0.0
  0
LINE
  5
184
330
20
100
AcDbEntity
  8
0
  6
Continuous
 62
     3
100
AcDbLine
 10
388.558
 20
151.68075
 30
0.0
 11
388.558
 21
128.18075
 31
0.0
  0
LINE
  5
185
330
20
100
AcDbEntity
  8
0
  6
Continuous
 62
     3
100
AcDbLine
 10
380.7580000000001
 20
96.68075000000001
 30
0.0
 11
388.558
 21
96.68075000000001
 31
0.0
  0
LINE
  5
186
330
20
100
AcDbEntity
  8
0
  6
Continuous
 62
     3
100
AcDbLine
 10
388.558
 20
96.68075000000001
 30
0.0
 11
388.558
 21
120.18075
 31
0.0
  0
LINE
  5
187
330
20
100
AcDbEntity
  8
0
  6
Continuous
 62
     3
100
AcDbLine
 10
255.817166984
 20
100.818498289
 30
0.0
 11
255.817166984
 21
91.083146126
 31
0.0
  0
LINE
  5
188
330
20
100
AcDbEntity
  8
0
  6
Continuous
 62
     3
100
AcDbLine
 10
255.817166984
 20
91.083146126
 30
0.0
 11
258.137072765
 21
91.083146126
 31
0.0
  0
LINE
  5
189
330
20
100
AcDbEntity
  8
0
  6
Continuous
 62
     3
100
AcDbLine
 10
245.559124652
 20
96.15082220799999
 30
0.0
 11
245.559124652
 21
98.610496983
 31
0.0
  0
LINE
  5
18A
330
20
100
AcDbEntity
  8
0
  6
Continuous
 62
     3
100
AcDbLine
 10
245.559124652
 20
96.15082220799999
 30
0.0
 11
245.559124652
 21
93.691147432
 31
0.0
  0
LINE
  5
18B
330
20
100
AcDbEntity
  8
0
  6
Continuous
 62
     3
100
AcDbLine
 10
245.559124652
 20
98.610496983
 30
0.0
 11
255.817166984
 21
100.818498289
 31
0.0
  0
LINE
  5
18C
330
20
100
AcDbEntity
  8
0
  6
Continuous
 62
     3
100
AcDbLine
 10
245.559124652
 20
93.691147432
 30
0.0
 11
255.817166984
 21
91.48314612600001
 31
0.0
  0
CIRCLE
  5
18D
330
20
100
AcDbEntity
  8
0
  6
Continuous
 62
     3
100
AcDbCircle
 10
103.658
 20
295.98075
 30
0.0
 40
2.0
  0
CIRCLE
  5
18E
330
20
100
AcDbEntity
  8
0
  6
Continuous
 62
     3
100
AcDbCircle
 10
167.658
 20
295.98075
 30
0.0
 40
2.0
  0
CIRCLE
  5
18F
330
20
100
AcDbEntity
  8
0
  6
Continuous
 62
     3
100
AcDbCircle
 10
103.658
 20
231.98075
 30
0.0
 40
2.0
  0
CIRCLE
  5
190
330
20
100
AcDbEntity
  8
0
  6
Continuous
 62
     3
100
AcDbCircle
 10
167.658
 20
231.98075
 30
0.0
 40
2.0
  0
CIRCLE
  5
191
330
20
100
AcDbEntity
  8
0
  6
Continuous
 62
     3
100
AcDbCircle
 10
135.658
 20
263.98075
 30
0.0
 40
36.0
  0
ARC
  5
192
330
20
100
AcDbEntity
  8
0
  6
Continuous
 62
     3
100
AcDbCircle
 10
461.058
 20
86.18075000000001
 30
0.0
 40
2.0
100
AcDbArc
 50
180.0
 51
270.0
  0
LINE
  5
193
330
20
100
AcDbEntity
  8
0
  6
Continuous
 62
     3
100
AcDbLine
 10
461.058
 20
84.18074999999999
 30
0.0
 11
537.058
 21
84.18074999999999
 31
0.0
  0
ARC
  5
194
330
20
100
AcDbEntity
  8
0
  6
Continuous
 62
     3
100
AcDbCircle
 10
537.058
 20
86.18075000000001
 30
0.0
 40
2.0
100
AcDbArc
 50
270.0
 51
0.0
  0
LINE
  5
195
330
20
100
AcDbEntity
  8
0
  6
Continuous
 62
     3
100
AcDbLine
 10
539.0579999999999
 20
86.18075000000001
 30
0.0
 11
539.0579999999999
 21
162.18075
 31
0.0
  0
ARC
  5
196
330
20
100
AcDbEntity
  8
0
  6
Continuous
 62
     3
100
AcDbCircle
 10
537.058
 20
162.18075
 30
0.0
 40
2.0
100
AcDbArc
 50
0.0
 51
90.0
  0
LINE
  5
197
330
20
100
AcDbEntity
  8
0
  6
Continuous
 62
     3
100
AcDbLine
 10
537.058
 20
164.18075
 30
0.0
 11
461.058
 21
164.18075
 31
0.0
  0
ARC
  5
198
330
20
100
AcDbEntity
  8
0
  6
Continuous
 62
     3
100
AcDbCircle
 10
461.058
 20
162.18075
 30
0.0
 40
2.0
100
AcDbArc
 50
90.0
 51
180.0
  0
LINE
  5
199
330
20
100
AcDbEntity
  8
0
  6
Continuous
 62
     3
100
AcDbLine
 10
459.058
 20
162.18075
 30
0.0
 11
459.058
 21
86.18075000000001
 31
0.0
  0
ARC
  5
19A
330
20
100
AcDbEntity
  8
0
  6
Continuous
 62
     3
100
AcDbCircle
 10
536.0579999999999
 20
161.18075
 30
0.0
 40
1.0
100
AcDbArc
 50
0.0
 51
90.0
  0
LINE
  5
19B
330
20
100
AcDbEntity
  8
0
  6
Continuous
 62
     3
100
AcDbLine
 10
536.0579999999999
 20
162.18075
 30
0.0
 11
462.058
 21
162.18075
 31
0.0
  0
ARC
  5
19C
330
20
100
AcDbEntity
  8
0
  6
Continuous
 62
     3
100
AcDbCircle
 10
462.058
 20
161.18075
 30
0.0
 40
1.0
100
AcDbArc
 50
90.0
 51
180.0
  0
LINE
  5
19D
330
20
100
AcDbEntity
  8
0
  6
Continuous
 62
     3
100
AcDbLine
 10
461.058
 20
161.18075
 30
0.0
 11
461.058
 21
87.18075
 31
0.0
  0
ARC
  5
19E
330
20
100
AcDbEntity
  8
0
  6
Continuous
 62
     3
100
AcDbCircle
 10
462.058
 20
87.18075
 30
0.0
 40
1.0
100
AcDbArc
 50
180.0
 51
270.0
  0
LINE
  5
19F
330
20
100
AcDbEntity
  8
0
  6
Continuous
 62
     3
100
AcDbLine
 10
537.058
 20
87.18075
 30
0.0
 11
537.058
 21
161.18075
 31
0.0
  0
LINE
  5
1A0
330
20
100
AcDbEntity
  8
0
  6
Continuous
 62
     3
100
AcDbLine
 10
462.058
 20
86.18075000000001
 30
0.0
 11
536.0579999999999
 21
86.18075000000001
 31
0.0
  0
ARC
  5
1A1
330
20
100
AcDbEntity
  8
0
  6
Continuous
 62
     3
100
AcDbCircle
 10
536.0579999999999
 20
87.18075
 30
0.0
 40
1.0
100
AcDbArc
 50
270.0
 51
0.0
  0
CIRCLE
  5
1A2
330
20
100
AcDbEntity
  8
0
  6
Continuous
 62
     3
100
AcDbCircle
 10
531.0579999999999
 20
156.18075
 30
0.0
 40
2.0
  0
CIRCLE
  5
1A3
330
20
100
AcDbEntity
  8
0
  6
Continuous
 62
     3
100
AcDbCircle
 10
467.058
 20
156.18075
 30
0.0
 40
2.0
  0
CIRCLE
  5
1A4
330
20
100
AcDbEntity
  8
0
  6
Continuous
 62
     3
100
AcDbCircle
 10
531.0579999999999
 20
92.18075
 30
0.0
 40
2.0
  0
CIRCLE
  5
1A5
330
20
100
AcDbEntity
  8
0
  6
Continuous
 62
     3
100
AcDbCircle
 10
467.058
 20
92.18075
 30
0.0
 40
2.0
  0
CIRCLE
  5
1A6
330
20
100
AcDbEntity
  8
0
  6
Continuous
 62
     3
100
AcDbCircle
 10
499.058
 20
124.18075
 30
0.0
 40
35.0
  0
CIRCLE
  5
1A7
330
20
100
AcDbEntity
  8
0
  6
Continuous
 62
     3
100
AcDbCircle
 10
499.058
 20
153.68075
 30
0.0
 40
3.5
  0
LINE
  5
1A8
330
20
100
AcDbEntity
  8
0
  6
Continuous
 62
     3
100
AcDbLine
 10
496.958
 20
154.08075
 30
0.0
 11
496.958
 21
153.28075
 31
0.0
  0
LINE
  5
1A9
330
20
100
AcDbEntity
  8
0
  6
Continuous
 62
     3
100
AcDbLine
 10
498.658
 20
151.58075
 30
0.0
 11
499.458
 21
151.58075
 31
0.0
  0
LINE
  5
1AA
330
20
100
AcDbEntity
  8
0
  6
Continuous
 62
     3
100
AcDbLine
 10
501.158
 20
153.28075
 30
0.0
 11
501.158
 21
154.08075
 31
0.0
  0
LINE
  5
1AB
330
20
100
AcDbEntity
  8
0
  6
Continuous
 62
     3
100
AcDbLine
 10
498.658
 20
155.78075
 30
0.0
 11
499.458
 21
155.78075
 31
0.0
  0
LINE
  5
1AC
330
20
100
AcDbEntity
  8
0
  6
Continuous
 62
     3
100
AcDbLine
 10
499.458
 20
151.58075
 30
0.0
 11
499.458
 21
152.38075
 31
0.0
  0
LINE
  5
1AD
330
20
100
AcDbEntity
  8
0
  6
Continuous
 62
     3
100
AcDbLine
 10
498.658
 20
151.58075
 30
0.0
 11
498.658
 21
152.38075
 31
0.0
  0
LINE
  5
1AE
330
20
100
AcDbEntity
  8
0
  6
Continuous
 62
     3
100
AcDbLine
 10
501.158
 20
153.28075
 30
0.0
 11
500.358
 21
153.28075
 31
0.0
  0
LINE
  5
1AF
330
20
100
AcDbEntity
  8
0
  6
Continuous
 62
     3
100
AcDbLine
 10
499.458
 20
155.78075
 30
0.0
 11
499.458
 21
154.98075
 31
0.0
  0
LINE
  5
1B0
330
20
100
AcDbEntity
  8
0
  6
Continuous
 62
     3
100
AcDbLine
 10
496.958
 20
154.08075
 30
0.0
 11
497.758
 21
154.08075
 31
0.0
  0
LINE
  5
1B1
330
20
100
AcDbEntity
  8
0
  6
Continuous
 62
     3
100
AcDbLine
 10
501.158
 20
154.08075
 30
0.0
 11
500.358
 21
154.08075
 31
0.0
  0
LINE
  5
1B2
330
20
100
AcDbEntity
  8
0
  6
Continuous
 62
     3
100
AcDbLine
 10
498.658
 20
155.78075
 30
0.0
 11
498.658
 21
154.98075
 31
0.0
  0
LINE
  5
1B3
330
20
100
AcDbEntity
  8
0
  6
Continuous
 62
     3
100
AcDbLine
 10
496.958
 20
153.28075
 30
0.0
 11
497.758
 21
153.28075
 31
0.0
  0
ARC
  5
1B4
330
20
100
AcDbEntity
  8
0
  6
Continuous
 62
     3
100
AcDbCircle
 10
500.258
 20
152.48075
 30
0.0
 40
0.8
100
AcDbArc
 50
82.3
 51
187.7
  0
ARC
  5
1B5
330
20
100
AcDbEntity
  8
0
  6
Continuous
 62
     3
100
AcDbCircle
 10
500.258
 20
154.88075
 30
0.0
 40
0.8
100
AcDbArc
 50
172.3
 51
277.7
  0
ARC
  5
1B6
330
20
100
AcDbEntity
  8
0
  6
Continuous
 62
     3
100
AcDbCircle
 10
497.858
 20
154.88075
 30
0.0
 40
0.8
100
AcDbArc
 50
262.3
 51
7.699999999999999
  0
ARC
  5
1B7
330
20
100
AcDbEntity
  8
0
  6
Continuous
 62
     3
100
AcDbCircle
 10
497.858
 20
152.48075
 30
0.0
 40
0.8
100
AcDbArc
 50
352.3
 51
97.70000000000001
  0
LINE
  5
1B8
330
20
100
AcDbEntity
  8
0
  6
Continuous
 62
     3
100
AcDbLine
 10
494.258
 20
152.68075
 30
0.0
 11
493.667973493
 21
156.05233004
 31
0.0
  0
ARC
  5
1B9
330
20
100
AcDbEntity
  8
0
  6
Continuous
 62
     3
100
AcDbCircle
 10
499.058
 20
153.68075
 30
0.0
 40
4.909175083
100
AcDbArc
 50
191.768288932
 51
353.475233368
  0
CIRCLE
  5
1BA
330
20
100
AcDbEntity
  8
0
  6
Continuous
 62
     3
100
AcDbCircle
 10
469.558
 20
124.18075
 30
0.0
 40
3.5
  0
LINE
  5
1BB
330
20
100
AcDbEntity
  8
0
  6
Continuous
 62
     3
100
AcDbLine
 10
469.158
 20
122.08075
 30
0.0
 11
469.958
 21
122.08075
 31
0.0
  0
LINE
  5
1BC
330
20
100
AcDbEntity
  8
0
  6
Continuous
 62
     3
100
AcDbLine
 10
471.658
 20
123.78075
 30
0.0
 11
471.658
 21
124.58075
 31
0.0
  0
LINE
  5
1BD
330
20
100
AcDbEntity
  8
0
  6
Continuous
 62
     3
100
AcDbLine
 10
469.958
 20
126.28075
 30
0.0
 11
469.158
 21
126.28075
 31
0.0
  0
LINE
  5
1BE
330
20
100
AcDbEntity
  8
0
  6
Continuous
 62
     3
100
AcDbLine
 10
467.458
 20
123.78075
 30
0.0
 11
467.458
 21
124.58075
 31
0.0
  0
LINE
  5
1BF
330
20
100
AcDbEntity
  8
0
  6
Continuous
 62
     3
100
AcDbLine
 10
471.658
 20
124.58075
 30
0.0
 11
470.858
 21
124.58075
 31
0.0
  0
LINE
  5
1C0
330
20
100
AcDbEntity
  8
0
  6
Continuous
 62
     3
100
AcDbLine
 10
471.658
 20
123.78075
 30
0.0
 11
470.858
 21
123.78075
 31
0.0
  0
LINE
  5
1C1
330
20
100
AcDbEntity
  8
0
  6
Continuous
 62
     3
100
AcDbLine
 10
469.958
 20
126.28075
 30
0.0
 11
469.958
 21
125.48075
 31
0.0
  0
LINE
  5
1C2
330
20
100
AcDbEntity
  8
0
  6
Continuous
 62
     3
100
AcDbLine
 10
467.458
 20
124.58075
 30
0.0
 11
468.258
 21
124.58075
 31
0.0
  0
LINE
  5
1C3
330
20
100
AcDbEntity
  8
0
  6
Continuous
 62
     3
100
AcDbLine
 10
469.158
 20
122.08075
 30
0.0
 11
469.158
 21
122.88075
 31
0.0
  0
LINE
  5
1C4
330
20
100
AcDbEntity
  8
0
  6
Continuous
 62
     3
100
AcDbLine
 10
469.158
 20
126.28075
 30
0.0
 11
469.158
 21
125.48075
 31
0.0
  0
LINE
  5
1C5
330
20
100
AcDbEntity
  8
0
  6
Continuous
 62
     3
100
AcDbLine
 10
467.458
 20
123.78075
 30
0.0
 11
468.258
 21
123.78075
 31
0.0
  0
LINE
  5
1C6
330
20
100
AcDbEntity
  8
0
  6
Continuous
 62
     3
100
AcDbLine
 10
469.958
 20
122.08075
 30
0.0
 11
469.958
 21
122.88075
 31
0.0
  0
ARC
  5
1C7
330
20
100
AcDbEntity
  8
0
  6
Continuous
 62
     3
100
AcDbCircle
 10
470.758
 20
125.38075
 30
0.0
 40
0.8
100
AcDbArc
 50
172.3
 51
277.7
  0
ARC
  5
1C8
330
20
100
AcDbEntity
  8
0
  6
Continuous
 62
     3
100
AcDbCircle
 10
468.358
 20
125.38075
 30
0.0
 40
0.8
100
AcDbArc
 50
262.3
 51
7.699999999999999
  0
ARC
  5
1C9
330
20
100
AcDbEntity
  8
0
  6
Continuous
 62
     3
100
AcDbCircle
 10
468.358
 20
122.98075
 30
0.0
 40
0.8
100
AcDbArc
 50
352.3
 51
97.70000000000001
  0
ARC
  5
1CA
330
20
100
AcDbEntity
  8
0
  6
Continuous
 62
     3
100
AcDbCircle
 10
470.758
 20
122.98075
 30
0.0
 40
0.8
100
AcDbArc
 50
82.3
 51
187.7
  0
LINE
  5
1CB
330
20
100
AcDbEntity
  8
0
  6
Continuous
 62
     3
100
AcDbLine
 10
470.558
 20
119.38075
 30
0.0
 11
467.18641996
 21
118.790723493
 31
0.0
  0
ARC
  5
1CC
330
20
100
AcDbEntity
  8
0
  6
Continuous
 62
     3
100
AcDbCircle
 10
469.558
 20
124.18075
 30
0.0
 40
4.909175083
100
AcDbArc
 50
281.768288932
 51
83.475233368
  0
CIRCLE
  5
1CD
330
20
100
AcDbEntity
  8
0
  6
Continuous
 62
     3
100
AcDbCircle
 10
499.058
 20
94.68075
 30
0.0
 40
3.5
  0
LINE
  5
1CE
330
20
100
AcDbEntity
  8
0
  6
Continuous
 62
     3
100
AcDbLine
 10
501.158
 20
94.28074999999999
 30
0.0
 11
501.158
 21
95.08074999999999
 31
0.0
  0
LINE
  5
1CF
330
20
100
AcDbEntity
  8
0
  6
Continuous
 62
     3
100
AcDbLine
 10
499.458
 20
96.78074999999999
 30
0.0
 11
498.658
 21
96.78074999999999
 31
0.0
  0
LINE
  5
1D0
330
20
100
AcDbEntity
  8
0
  6
Continuous
 62
     3
100
AcDbLine
 10
496.958
 20
95.08074999999999
 30
0.0
 11
496.958
 21
94.28074999999999
 31
0.0
  0
LINE
  5
1D1
330
20
100
AcDbEntity
  8
0
  6
Continuous
 62
     3
100
AcDbLine
 10
499.458
 20
92.58074999999999
 30
0.0
 11
498.658
 21
92.58074999999999
 31
0.0
  0
LINE
  5
1D2
330
20
100
AcDbEntity
  8
0
  6
Continuous
 62
     3
100
AcDbLine
 10
498.658
 20
96.78074999999999
 30
0.0
 11
498.658
 21
95.98074999999999
 31
0.0
  0
LINE
  5
1D3
330
20
100
AcDbEntity
  8
0
  6
Continuous
 62
     3
100
AcDbLine
 10
499.458
 20
96.78074999999999
 30
0.0
 11
499.458
 21
95.98074999999999
 31
0.0
  0
LINE
  5
1D4
330
20
100
AcDbEntity
  8
0
  6
Continuous
 62
     3
100
AcDbLine
 10
496.958
 20
95.08074999999999
 30
0.0
 11
497.758
 21
95.08074999999999
 31
0.0
  0
LINE
  5
1D5
330
20
100
AcDbEntity
  8
0
  6
Continuous
 62
     3
100
AcDbLine
 10
498.658
 20
92.58074999999999
 30
0.0
 11
498.658
 21
93.38075000000001
 31
0.0
  0
LINE
  5
1D6
330
20
100
AcDbEntity
  8
0
  6
Continuous
 62
     3
100
AcDbLine
 10
501.158
 20
94.28074999999999
 30
0.0
 11
500.358
 21
94.28074999999999
 31
0.0
  0
LINE
  5
1D7
330
20
100
AcDbEntity
  8
0
  6
Continuous
 62
     3
100
AcDbLine
 10
496.958
 20
94.28074999999999
 30
0.0
 11
497.758
 21
94.28074999999999
 31
0.0
  0
LINE
  5
1D8
330
20
100
AcDbEntity
  8
0
  6
Continuous
 62
     3
100
AcDbLine
 10
499.458
 20
92.58074999999999
 30
0.0
 11
499.458
 21
93.38075000000001
 31
0.0
  0
LINE
  5
1D9
330
20
100
AcDbEntity
  8
0
  6
Continuous
 62
     3
100
AcDbLine
 10
501.158
 20
95.08074999999999
 30
0.0
 11
500.358
 21
95.08074999999999
 31
0.0
  0
ARC
  5
1DA
330
20
100
AcDbEntity
  8
0
  6
Continuous
 62
     3
100
AcDbCircle
 10
497.858
 20
95.88075000000001
 30
0.0
 40
0.8
100
AcDbArc
 50
262.3
 51
7.699999999999999
  0
ARC
  5
1DB
330
20
100
AcDbEntity
  8
0
  6
Continuous
 62
     3
100
AcDbCircle
 10
497.858
 20
93.48074999999999
 30
0.0
 40
0.8
100
AcDbArc
 50
352.3
 51
97.70000000000001
  0
ARC
  5
1DC
330
20
100
AcDbEntity
  8
0
  6
Continuous
 62
     3
100
AcDbCircle
 10
500.258
 20
93.48074999999999
 30
0.0
 40
0.8
100
AcDbArc
 50
82.3
 51
187.7
  0
ARC
  5
1DD
330
20
100
AcDbEntity
  8
0
  6
Continuous
 62
     3
100
AcDbCircle
 10
500.258
 20
95.88075000000001
 30
0.0
 40
0.8
100
AcDbArc
 50
172.3
 51
277.7
  0
ARC
  5
1DE
330
20
100
AcDbEntity
  8
0
  6
Continuous
 62
     3
100
AcDbCircle
 10
499.058
 20
94.68075
 30
0.0
 40
4.909175083
100
AcDbArc
 50
11.768288932
 51
173.475233368
  0
CIRCLE
  5
1DF
330
20
100
AcDbEntity
  8
0
  6
Continuous
 62
     3
100
AcDbCircle
 10
528.558
 20
124.18075
 30
0.0
 40
3.5
  0
LINE
  5
1E0
330
20
100
AcDbEntity
  8
0
  6
Continuous
 62
     3
100
AcDbLine
 10
528.958
 20
126.28075
 30
0.0
 11
528.1579999999999
 21
126.28075
 31
0.0
  0
LINE
  5
1E1
330
20
100
AcDbEntity
  8
0
  6
Continuous
 62
     3
100
AcDbLine
 10
526.4580000000001
 20
124.58075
 30
0.0
 11
526.4580000000001
 21
123.78075
 31
0.0
  0
LINE
  5
1E2
330
20
100
AcDbEntity
  8
0
  6
Continuous
 62
     3
100
AcDbLine
 10
528.1579999999999
 20
122.08075
 30
0.0
 11
528.958
 21
122.08075
 31
0.0
  0
LINE
  5
1E3
330
20
100
AcDbEntity
  8
0
  6
Continuous
 62
     3
100
AcDbLine
 10
530.658
 20
124.58075
 30
0.0
 11
530.658
 21
123.78075
 31
0.0
  0
LINE
  5
1E4
330
20
100
AcDbEntity
  8
0
  6
Continuous
 62
     3
100
AcDbLine
 10
526.4580000000001
 20
123.78075
 30
0.0
 11
527.258
 21
123.78075
 31
0.0
  0
LINE
  5
1E5
330
20
100
AcDbEntity
  8
0
  6
Continuous
 62
     3
100
AcDbLine
 10
526.4580000000001
 20
124.58075
 30
0.0
 11
527.258
 21
124.58075
 31
0.0
  0
LINE
  5
1E6
330
20
100
AcDbEntity
  8
0
  6
Continuous
 62
     3
100
AcDbLine
 10
528.1579999999999
 20
122.08075
 30
0.0
 11
528.1579999999999
 21
122.88075
 31
0.0
  0
LINE
  5
1E7
330
20
100
AcDbEntity
  8
0
  6
Continuous
 62
     3
100
AcDbLine
 10
530.658
 20
123.78075
 30
0.0
 11
529.858
 21
123.78075
 31
0.0
  0
LINE
  5
1E8
330
20
100
AcDbEntity
  8
0
  6
Continuous
 62
     3
100
AcDbLine
 10
528.958
 20
126.28075
 30
0.0
 11
528.958
 21
125.48075
 31
0.0
  0
LINE
  5
1E9
330
20
100
AcDbEntity
  8
0
  6
Continuous
 62
     3
100
AcDbLine
 10
528.958
 20
122.08075
 30
0.0
 11
528.958
 21
122.88075
 31
0.0
  0
LINE
  5
1EA
330
20
100
AcDbEntity
  8
0
  6
Continuous
 62
     3
100
AcDbLine
 10
530.658
 20
124.58075
 30
0.0
 11
529.858
 21
124.58075
 31
0.0
  0
LINE
  5
1EB
330
20
100
AcDbEntity
  8
0
  6
Continuous
 62
     3
100
AcDbLine
 10
528.1579999999999
 20
126.28075
 30
0.0
 11
528.1579999999999
 21
125.48075
 31
0.0
  0
ARC
  5
1EC
330
20
100
AcDbEntity
  8
0
  6
Continuous
 62
     3
100
AcDbCircle
 10
527.358
 20
122.98075
 30
0.0
 40
0.8
100
AcDbArc
 50
352.3
 51
97.70000000000001
  0
ARC
  5
1ED
330
20
100
AcDbEntity
  8
0
  6
Continuous
 62
     3
100
AcDbCircle
 10
529.758
 20
122.98075
 30
0.0
 40
0.8
100
AcDbArc
 50
82.3
 51
187.7
  0
ARC
  5
1EE
330
20
100
AcDbEntity
  8
0
  6
Continuous
 62
     3
100
AcDbCircle
 10
529.758
 20
125.38075
 30
0.0
 40
0.8
100
AcDbArc
 50
172.3
 51
277.7
  0
ARC
  5
1EF
330
20
100
AcDbEntity
  8
0
  6
Continuous
 62
     3
100
AcDbCircle
 10
527.358
 20
125.38075
 30
0.0
 40
0.8
100
AcDbArc
 50
262.3
 51
7.699999999999999
  0
LINE
  5
1F0
330
20
100
AcDbEntity
  8
0
  6
Continuous
 62
     3
100
AcDbLine
 10
527.5579999999999
 20
128.98075
 30
0.0
 11
530.92958004
 21
129.570776507
 31
0.0
  0
ARC
  5
1F1
330
20
100
AcDbEntity
  8
0
  6
Continuous
 62
     3
100
AcDbCircle
 10
528.558
 20
124.18075
 30
0.0
 40
4.909175083
100
AcDbArc
 50
101.768288932
 51
263.475233368
  0
ARC
  5
1F2
330
20
100
AcDbEntity
  8
0
  6
Continuous
 62
     3
100
AcDbCircle
 10
499.058
 20
124.18075
 30
0.0
 40
32.324139586
100
AcDbArc
 50
93.83670590900001
 51
170.401132091
  0
ARC
  5
1F3
330
20
100
AcDbEntity
  8
0
  6
Continuous
 62
     3
100
AcDbCircle
 10
499.058
 20
124.18075
 30
0.0
 40
32.324139586
100
AcDbArc
 50
9.598867908999999
 51
86.163294091
  0
CIRCLE
  5
1F4
330
20
100
AcDbEntity
  8
0
  6
Continuous
 62
     3
100
AcDbCircle
 10
489.108230759
 20
148.201617845
 30
0.0
 40
3.5
  0
LINE
  5
1F5
330
20
100
AcDbEntity
  8
0
  6
Continuous
 62
     3
100
AcDbLine
 10
487.0150103669999
 20
147.76753445
 30
0.0
 11
487.321157113
 21
147.028430824
 31
0.0
  0
LINE
  5
1F6
330
20
100
AcDbEntity
  8
0
  6
Continuous
 62
     3
100
AcDbLine
 10
489.542314153
 20
146.108397454
 30
0.0
 11
490.281417779
 21
146.4145442
 31
0.0
  0
LINE
  5
1F7
330
20
100
AcDbEntity
  8
0
  6
Continuous
 62
     3
100
AcDbLine
 10
491.20145115
 20
148.63570124
 30
0.0
 11
490.895304404
 21
149.374804866
 31
0.0
  0
LINE
  5
1F8
330
20
100
AcDbEntity
  8
0
  6
Continuous
 62
     3
100
AcDbLine
 10
487.935043738
 20
149.988691491
 30
0.0
 11
488.6741473639999
 21
150.294838237
 31
0.0
  0
LINE
  5
1F9
330
20
100
AcDbEntity
  8
0
  6
Continuous
 62
     3
100
AcDbLine
 10
490.281417779
 20
146.4145442
 30
0.0
 11
489.975271034
 21
147.153647826
 31
0.0
  0
LINE
  5
1FA
330
20
100
AcDbEntity
  8
0
  6
Continuous
 62
     3
100
AcDbLine
 10
489.542314153
 20
146.108397454
 30
0.0
 11
489.236167408
 21
146.84750108
 31
0.0
  0
LINE
  5
1FB
330
20
100
AcDbEntity
  8
0
  6
Continuous
 62
     3
100
AcDbLine
 10
491.20145115
 20
148.63570124
 30
0.0
 11
490.462347524
 21
148.329554494
 31
0.0
  0
LINE
  5
1FC
330
20
100
AcDbEntity
  8
0
  6
Continuous
 62
     3
100
AcDbLine
 10
488.6741473639999
 20
150.294838237
 30
0.0
 11
488.980294109
 21
149.555734611
 31
0.0
  0
LINE
  5
1FD
330
20
100
AcDbEntity
  8
0
  6
Continuous
 62
     3
100
AcDbLine
 10
487.0150103669999
 20
147.76753445
 30
0.0
 11
487.754113993
 21
148.073681196
 31
0.0
  0
LINE
  5
1FE
330
20
100
AcDbEntity
  8
0
  6
Continuous
 62
     3
100
AcDbLine
 10
490.895304404
 20
149.374804866
 30
0.0
 11
490.1562007779999
 21
149.06865812
 31
0.0
  0
LINE
  5
1FF
330
20
100
AcDbEntity
  8
0
  6
Continuous
 62
     3
100
AcDbLine
 10
487.935043738
 20
149.988691491
 30
0.0
 11
488.241190483
 21
149.249587865
 31
0.0
  0
LINE
  5
200
330
20
100
AcDbEntity
  8
0
  6
Continuous
 62
     3
100
AcDbLine
 10
487.321157113
 20
147.028430824
 30
0.0
 11
488.060260739
 21
147.33457757
 31
0.0
  0
ARC
  5
201
330
20
100
AcDbEntity
  8
0
  6
Continuous
 62
     3
100
AcDbCircle
 10
490.6761063159999
 20
147.552182525
 30
0.0
 40
0.8
100
AcDbArc
 50
104.8
 51
210.2
  0
ARC
  5
202
330
20
100
AcDbEntity
  8
0
  6
Continuous
 62
     3
100
AcDbCircle
 10
489.757666079
 20
149.769493403
 30
0.0
 40
0.8
100
AcDbArc
 50
194.8
 51
300.2
  0
ARC
  5
203
330
20
100
AcDbEntity
  8
0
  6
Continuous
 62
     3
100
AcDbCircle
 10
487.5403552009999
 20
148.851053165
 30
0.0
 40
0.8
100
AcDbArc
 50
284.8
 51
30.2
  0
ARC
  5
204
330
20
100
AcDbEntity
  8
0
  6
Continuous
 62
     3
100
AcDbCircle
 10
488.458795438
 20
146.633742287
 30
0.0
 40
0.8
100
AcDbArc
 50
14.8
 51
120.2
  0
ARC
  5
205
330
20
100
AcDbEntity
  8
0
  6
Continuous
 62
     3
100
AcDbCircle
 10
489.108230759
 20
148.201617845
 30
0.0
 40
4.909175083
100
AcDbArc
 50
214.268288932
 51
15.975233368
  0
LINE
  5
206
330
20
100
AcDbEntity
  8
0
  6
Continuous
 62
     3
100
AcDbLine
 10
485.056292435
 20
145.440857837
 30
0.0
 11
481.281552105
 21
151.177933191
 31
0.0
  0
LINE
  5
207
330
20
100
AcDbEntity
  8
0
  6
Continuous
 62
     3
100
AcDbLine
 10
493.8278171969999
 20
149.552729926
 30
0.0
 11
491.883152478
 21
155.69854756
 31
0.0
  0
LINE
  5
208
330
20
100
AcDbEntity
  8
0
  6
Continuous
 62
     3
100
AcDbLine
 10
503.9353775199999
 20
153.12290726
 30
0.0
 11
504.4480265069999
 21
156.05233004
 31
0.0
  0
CIRCLE
  5
209
330
20
100
AcDbEntity
  8
0
  6
Continuous
 62
     3
100
AcDbCircle
 10
480.673223689
 20
142.565526311
 30
0.0
 40
3.5
  0
ARC
  5
20A
330
20
100
AcDbEntity
  8
0
  6
Continuous
 62
     3
100
AcDbCircle
 10
480.673223689
 20
142.565526311
 30
0.0
 40
4.909175083
100
AcDbArc
 50
236.768288932
 51
38.47523336800001
  0
LINE
  5
20B
330
20
100
AcDbEntity
  8
0
  6
Continuous
 62
     3
100
AcDbLine
 10
477.986217921
 20
138.46430698
 30
0.0
 11
472.3033289009999
 21
142.320142889
 31
0.0
  0
LINE
  5
20C
330
20
100
AcDbEntity
  8
0
  6
Continuous
 62
     3
100
AcDbLine
 10
484.516504793
 20
145.619898646
 30
0.0
 11
480.367966275
 21
150.553702799
 31
0.0
  0
CIRCLE
  5
20D
330
20
100
AcDbEntity
  8
0
  6
Continuous
 62
     3
100
AcDbCircle
 10
475.037132155
 20
134.130519241
 30
0.0
 40
3.5
  0
LINE
  5
20E
330
20
100
AcDbEntity
  8
0
  6
Continuous
 62
     3
100
AcDbLine
 10
473.863945134
 20
132.343445596
 30
0.0
 11
474.6030487599999
 21
132.03729885
 31
0.0
  0
LINE
  5
20F
330
20
100
AcDbEntity
  8
0
  6
Continuous
 62
     3
100
AcDbLine
 10
476.8242058
 20
132.957332221
 30
0.0
 11
477.1303525459999
 21
133.696435847
 31
0.0
  0
LINE
  5
210
330
20
100
AcDbEntity
  8
0
  6
Continuous
 62
     3
100
AcDbLine
 10
476.2103191759999
 20
135.917592887
 30
0.0
 11
475.47121555
 21
136.223739633
 31
0.0
  0
LINE
  5
211
330
20
100
AcDbEntity
  8
0
  6
Continuous
 62
     3
100
AcDbLine
 10
472.943911763
 20
134.564602636
 30
0.0
 11
473.250058509
 21
135.303706262
 31
0.0
  0
LINE
  5
212
330
20
100
AcDbEntity
  8
0
  6
Continuous
 62
     3
100
AcDbLine
 10
477.1303525459999
 20
133.696435847
 30
0.0
 11
476.3912489199999
 21
134.002582592
 31
0.0
  0
LINE
  5
213
330
20
100
AcDbEntity
  8
0
  6
Continuous
 62
     3
100
AcDbLine
 10
476.8242058
 20
132.957332221
 30
0.0
 11
476.085102174
 21
133.263478966
 31
0.0
  0
LINE
  5
214
330
20
100
AcDbEntity
  8
0
  6
Continuous
 62
     3
100
AcDbLine
 10
476.2103191759999
 20
135.917592887
 30
0.0
 11
475.90417243
 21
135.178489261
 31
0.0
  0
LINE
  5
215
330
20
100
AcDbEntity
  8
0
  6
Continuous
 62
     3
100
AcDbLine
 10
473.250058509
 20
135.303706262
 30
0.0
 11
473.9891621349999
 21
134.997559517
 31
0.0
  0
LINE
  5
216
330
20
100
AcDbEntity
  8
0
  6
Continuous
 62
     3
100
AcDbLine
 10
473.863945134
 20
132.343445596
 30
0.0
 11
474.1700918799999
 21
133.082549222
 31
0.0
  0
LINE
  5
217
330
20
100
AcDbEntity
  8
0
  6
Continuous
 62
     3
100
AcDbLine
 10
475.47121555
 20
136.223739633
 30
0.0
 11
475.165068804
 21
135.484636007
 31
0.0
  0
LINE
  5
218
330
20
100
AcDbEntity
  8
0
  6
Continuous
 62
     3
100
AcDbLine
 10
472.943911763
 20
134.564602636
 30
0.0
 11
473.6830153889999
 21
134.258455891
 31
0.0
  0
LINE
  5
219
330
20
100
AcDbEntity
  8
0
  6
Continuous
 62
     3
100
AcDbLine
 10
474.6030487599999
 20
132.03729885
 30
0.0
 11
474.9091955059999
 21
132.776402476
 31
0.0
  0
ARC
  5
21A
330
20
100
AcDbEntity
  8
0
  6
Continuous
 62
     3
100
AcDbCircle
 10
476.605007713
 20
134.779954562
 30
0.0
 40
0.8
100
AcDbArc
 50
149.8
 51
255.2
  0
ARC
  5
21B
330
20
100
AcDbEntity
  8
0
  6
Continuous
 62
     3
100
AcDbCircle
 10
474.387696835
 20
135.698394799
 30
0.0
 40
0.8
100
AcDbArc
 50
239.8
 51
345.2
  0
ARC
  5
21C
330
20
100
AcDbEntity
  8
0
  6
Continuous
 62
     3
100
AcDbCircle
 10
473.4692565969999
 20
133.481083921
 30
0.0
 40
0.8
100
AcDbArc
 50
329.8
 51
75.2
  0
ARC
  5
21D
330
20
100
AcDbEntity
  8
0
  6
Continuous
 62
     3
100
AcDbCircle
 10
475.686567475
 20
132.562643684
 30
0.0
 40
0.8
100
AcDbArc
 50
59.8
 51
165.2
  0
ARC
  5
21E
330
20
100
AcDbEntity
  8
0
  6
Continuous
 62
     3
100
AcDbCircle
 10
475.037132155
 20
134.130519241
 30
0.0
 40
4.909175083
100
AcDbArc
 50
259.268288932
 51
60.97523336800001
  0
LINE
  5
21F
330
20
100
AcDbEntity
  8
0
  6
Continuous
 62
     3
100
AcDbLine
 10
474.1241312119999
 20
129.313214053
 30
0.0
 11
467.398261841
 21
130.700794455
 31
0.0
  0
LINE
  5
220
330
20
100
AcDbEntity
  8
0
  6
Continuous
 62
     3
100
AcDbLine
 10
477.4190032149999
 20
138.42315133
 30
0.0
 11
471.698168281
 21
141.393815046
 31
0.0
  0
LINE
  5
221
330
20
100
AcDbEntity
  8
0
  6
Continuous
 62
     3
100
AcDbLine
 10
470.11584274
 20
129.05812752
 30
0.0
 11
467.18641996
 21
129.570776507
 31
0.0
  0
LINE
  5
222
330
20
100
AcDbEntity
  8
0
  6
Continuous
 62
     3
100
AcDbLine
 10
528.00015726
 20
119.30337248
 30
0.0
 11
530.92958004
 21
118.790723493
 31
0.0
  0
LINE
  5
223
330
20
100
AcDbEntity
  8
0
  6
Continuous
 62
     3
100
AcDbLine
 10
494.18062248
 20
95.23859274000001
 30
0.0
 11
493.667973493
 21
92.30916996000001
 31
0.0
  0
LINE
  5
224
330
20
100
AcDbEntity
  8
0
  6
Continuous
 62
     3
100
AcDbLine
 10
503.863986284
 20
95.68199714200002
 30
0.0
 11
504.4480265069999
 21
92.30916996000001
 31
0.0
  0
LINE
  5
225
330
20
100
AcDbEntity
  8
0
  6
Continuous
 62
     3
100
AcDbLine
 10
503.858
 20
152.68075
 30
0.0
 11
504.4480265069999
 21
156.05233004
 31
0.0
  0
CIRCLE
  5
226
330
20
100
AcDbEntity
  8
0
  6
Continuous
 62
     3
100
AcDbCircle
 10
509.007769241
 20
148.201617845
 30
0.0
 40
3.5
  0
LINE
  5
227
330
20
100
AcDbEntity
  8
0
  6
Continuous
 62
     3
100
AcDbLine
 10
511.100989633
 20
147.76753445
 30
0.0
 11
510.7948428869999
 21
147.028430824
 31
0.0
  0
LINE
  5
228
330
20
100
AcDbEntity
  8
0
  6
Continuous
 62
     3
100
AcDbLine
 10
508.5736858469999
 20
146.108397454
 30
0.0
 11
507.834582221
 21
146.4145442
 31
0.0
  0
LINE
  5
229
330
20
100
AcDbEntity
  8
0
  6
Continuous
 62
     3
100
AcDbLine
 10
506.91454885
 20
148.63570124
 30
0.0
 11
507.2206955959999
 21
149.374804866
 31
0.0
  0
LINE
  5
22A
330
20
100
AcDbEntity
  8
0
  6
Continuous
 62
     3
100
AcDbLine
 10
510.1809562619999
 20
149.988691491
 30
0.0
 11
509.441852636
 21
150.294838237
 31
0.0
  0
LINE
  5
22B
330
20
100
AcDbEntity
  8
0
  6
Continuous
 62
     3
100
AcDbLine
 10
507.834582221
 20
146.4145442
 30
0.0
 11
508.1407289659999
 21
147.153647826
 31
0.0
  0
LINE
  5
22C
330
20
100
AcDbEntity
  8
0
  6
Continuous
 62
     3
100
AcDbLine
 10
508.5736858469999
 20
146.108397454
 30
0.0
 11
508.879832592
 21
146.84750108
 31
0.0
  0
LINE
  5
22D
330
20
100
AcDbEntity
  8
0
  6
Continuous
 62
     3
100
AcDbLine
 10
506.91454885
 20
148.63570124
 30
0.0
 11
507.6536524759999
 21
148.329554494
 31
0.0
  0
LINE
  5
22E
330
20
100
AcDbEntity
  8
0
  6
Continuous
 62
     3
100
AcDbLine
 10
509.441852636
 20
150.294838237
 30
0.0
 11
509.1357058909999
 21
149.555734611
 31
0.0
  0
LINE
  5
22F
330
20
100
AcDbEntity
  8
0
  6
Continuous
 62
     3
100
AcDbLine
 10
511.100989633
 20
147.76753445
 30
0.0
 11
510.3618860069999
 21
148.073681196
 31
0.0
  0
LINE
  5
230
330
20
100
AcDbEntity
  8
0
  6
Continuous
 62
     3
100
AcDbLine
 10
507.2206955959999
 20
149.374804866
 30
0.0
 11
507.959799222
 21
149.06865812
 31
0.0
  0
LINE
  5
231
330
20
100
AcDbEntity
  8
0
  6
Continuous
 62
     3
100
AcDbLine
 10
510.1809562619999
 20
149.988691491
 30
0.0
 11
509.8748095169999
 21
149.249587865
 31
0.0
  0
LINE
  5
232
330
20
100
AcDbEntity
  8
0
  6
Continuous
 62
     3
100
AcDbLine
 10
510.7948428869999
 20
147.028430824
 30
0.0
 11
510.0557392609999
 21
147.33457757
 31
0.0
  0
ARC
  5
233
330
20
100
AcDbEntity
  8
0
  6
Continuous
 62
     3
100
AcDbCircle
 10
507.439893684
 20
147.552182525
 30
0.0
 40
0.8
100
AcDbArc
 50
329.8
 51
75.2
  0
ARC
  5
234
330
20
100
AcDbEntity
  8
0
  6
Continuous
 62
     3
100
AcDbCircle
 10
508.358333921
 20
149.769493403
 30
0.0
 40
0.8
100
AcDbArc
 50
239.8
 51
345.2
  0
ARC
  5
235
330
20
100
AcDbEntity
  8
0
  6
Continuous
 62
     3
100
AcDbCircle
 10
510.575644799
 20
148.851053165
 30
0.0
 40
0.8
100
AcDbArc
 50
149.8
 51
255.2
  0
ARC
  5
236
330
20
100
AcDbEntity
  8
0
  6
Continuous
 62
     3
100
AcDbCircle
 10
509.6572045619999
 20
146.633742287
 30
0.0
 40
0.8
100
AcDbArc
 50
59.8
 51
165.2
  0
ARC
  5
237
330
20
100
AcDbEntity
  8
0
  6
Continuous
 62
     3
100
AcDbCircle
 10
509.007769241
 20
148.201617845
 30
0.0
 40
4.909175083
100
AcDbArc
 50
164.024766632
 51
325.731711068
  0
LINE
  5
238
330
20
100
AcDbEntity
  8
0
  6
Continuous
 62
     3
100
AcDbLine
 10
513.059707565
 20
145.440857837
 30
0.0
 11
516.834447895
 21
151.177933191
 31
0.0
  0
LINE
  5
239
330
20
100
AcDbEntity
  8
0
  6
Continuous
 62
     3
100
AcDbLine
 10
504.288182803
 20
149.552729926
 30
0.0
 11
506.232847522
 21
155.69854756
 31
0.0
  0
CIRCLE
  5
23A
330
20
100
AcDbEntity
  8
0
  6
Continuous
 62
     3
100
AcDbCircle
 10
517.4427763109999
 20
142.565526311
 30
0.0
 40
3.5
  0
ARC
  5
23B
330
20
100
AcDbEntity
  8
0
  6
Continuous
 62
     3
100
AcDbCircle
 10
517.4427763109999
 20
142.565526311
 30
0.0
 40
4.909175083
100
AcDbArc
 50
141.524766632
 51
303.231711068
  0
LINE
  5
23C
330
20
100
AcDbEntity
  8
0
  6
Continuous
 62
     3
100
AcDbLine
 10
520.129782079
 20
138.46430698
 30
0.0
 11
525.812671099
 21
142.320142889
 31
0.0
  0
LINE
  5
23D
330
20
100
AcDbEntity
  8
0
  6
Continuous
 62
     3
100
AcDbLine
 10
513.5994952069999
 20
145.619898646
 30
0.0
 11
517.748033725
 21
150.553702799
 31
0.0
  0
CIRCLE
  5
23E
330
20
100
AcDbEntity
  8
0
  6
Continuous
 62
     3
100
AcDbCircle
 10
523.0788678449999
 20
134.130519241
 30
0.0
 40
3.5
  0
LINE
  5
23F
330
20
100
AcDbEntity
  8
0
  6
Continuous
 62
     3
100
AcDbLine
 10
524.2520548659999
 20
132.343445596
 30
0.0
 11
523.51295124
 21
132.03729885
 31
0.0
  0
LINE
  5
240
330
20
100
AcDbEntity
  8
0
  6
Continuous
 62
     3
100
AcDbLine
 10
521.2917942
 20
132.957332221
 30
0.0
 11
520.985647454
 21
133.696435847
 31
0.0
  0
LINE
  5
241
330
20
100
AcDbEntity
  8
0
  6
Continuous
 62
     3
100
AcDbLine
 10
521.905680824
 20
135.917592887
 30
0.0
 11
522.6447844499999
 21
136.223739633
 31
0.0
  0
LINE
  5
242
330
20
100
AcDbEntity
  8
0
  6
Continuous
 62
     3
100
AcDbLine
 10
525.172088237
 20
134.564602636
 30
0.0
 11
524.8659414909999
 21
135.303706262
 31
0.0
  0
LINE
  5
243
330
20
100
AcDbEntity
  8
0
  6
Continuous
 62
     3
100
AcDbLine
 10
520.985647454
 20
133.696435847
 30
0.0
 11
521.72475108
 21
134.002582592
 31
0.0
  0
LINE
  5
244
330
20
100
AcDbEntity
  8
0
  6
Continuous
 62
     3
100
AcDbLine
 10
521.2917942
 20
132.957332221
 30
0.0
 11
522.030897826
 21
133.263478966
 31
0.0
  0
LINE
  5
245
330
20
100
AcDbEntity
  8
0
  6
Continuous
 62
     3
100
AcDbLine
 10
521.905680824
 20
135.917592887
 30
0.0
 11
522.2118275699999
 21
135.178489261
 31
0.0
  0
LINE
  5
246
330
20
100
AcDbEntity
  8
0
  6
Continuous
 62
     3
100
AcDbLine
 10
524.8659414909999
 20
135.303706262
 30
0.0
 11
524.126837865
 21
134.997559517
 31
0.0
  0
LINE
  5
247
330
20
100
AcDbEntity
  8
0
  6
Continuous
 62
     3
100
AcDbLine
 10
524.2520548659999
 20
132.343445596
 30
0.0
 11
523.94590812
 21
133.082549222
 31
0.0
  0
LINE
  5
248
330
20
100
AcDbEntity
  8
0
  6
Continuous
 62
     3
100
AcDbLine
 10
522.6447844499999
 20
136.223739633
 30
0.0
 11
522.9509311959999
 21
135.484636007
 31
0.0
  0
LINE
  5
249
330
20
100
AcDbEntity
  8
0
  6
Continuous
 62
     3
100
AcDbLine
 10
525.172088237
 20
134.564602636
 30
0.0
 11
524.4329846109999
 21
134.258455891
 31
0.0
  0
LINE
  5
24A
330
20
100
AcDbEntity
  8
0
  6
Continuous
 62
     3
100
AcDbLine
 10
523.51295124
 20
132.03729885
 30
0.0
 11
523.206804494
 21
132.776402476
 31
0.0
  0
ARC
  5
24B
330
20
100
AcDbEntity
  8
0
  6
Continuous
 62
     3
100
AcDbCircle
 10
521.5109922869999
 20
134.779954562
 30
0.0
 40
0.8
100
AcDbArc
 50
284.8
 51
30.2
  0
ARC
  5
24C
330
20
100
AcDbEntity
  8
0
  6
Continuous
 62
     3
100
AcDbCircle
 10
523.728303165
 20
135.698394799
 30
0.0
 40
0.8
100
AcDbArc
 50
194.8
 51
300.2
  0
ARC
  5
24D
330
20
100
AcDbEntity
  8
0
  6
Continuous
 62
     3
100
AcDbCircle
 10
524.6467434030001
 20
133.481083921
 30
0.0
 40
0.8
100
AcDbArc
 50
104.8
 51
210.2
  0
ARC
  5
24E
330
20
100
AcDbEntity
  8
0
  6
Continuous
 62
     3
100
AcDbCircle
 10
522.429432525
 20
132.562643684
 30
0.0
 40
0.8
100
AcDbArc
 50
14.8
 51
120.2
  0
ARC
  5
24F
330
20
100
AcDbEntity
  8
0
  6
Continuous
 62
     3
100
AcDbCircle
 10
523.0788678449999
 20
134.130519241
 30
0.0
 40
4.909175083
100
AcDbArc
 50
119.024766632
 51
280.731711068
  0
LINE
  5
250
330
20
100
AcDbEntity
  8
0
  6
Continuous
 62
     3
100
AcDbLine
 10
523.991868788
 20
129.313214053
 30
0.0
 11
530.7177381589999
 21
130.700794455
 31
0.0
  0
LINE
  5
251
330
20
100
AcDbEntity
  8
0
  6
Continuous
 62
     3
100
AcDbLine
 10
520.696996785
 20
138.42315133
 30
0.0
 11
526.4178317189999
 21
141.393815046
 31
0.0
  0
LINE
  5
252
330
20
100
AcDbEntity
  8
0
  6
Continuous
 62
     3
100
AcDbLine
 10
528.00015726
 20
129.05812752
 30
0.0
 11
530.92958004
 21
129.570776507
 31
0.0
  0
LINE
  5
253
330
20
100
AcDbEntity
  8
0
  6
Continuous
 62
     3
100
AcDbLine
 10
519.5359967019999
 20
142.131442916
 30
0.0
 11
519.2298499559999
 21
141.39233929
 31
0.0
  0
LINE
  5
254
330
20
100
AcDbEntity
  8
0
  6
Continuous
 62
     3
100
AcDbLine
 10
517.008692916
 20
140.47230592
 30
0.0
 11
516.26958929
 21
140.778452666
 31
0.0
  0
LINE
  5
255
330
20
100
AcDbEntity
  8
0
  6
Continuous
 62
     3
100
AcDbLine
 10
515.3495559199999
 20
142.999609706
 30
0.0
 11
515.655702666
 21
143.738713332
 31
0.0
  0
LINE
  5
256
330
20
100
AcDbEntity
  8
0
  6
Continuous
 62
     3
100
AcDbLine
 10
518.6159633319999
 20
144.352599956
 30
0.0
 11
517.876859706
 21
144.658746702
 31
0.0
  0
LINE
  5
257
330
20
100
AcDbEntity
  8
0
  6
Continuous
 62
     3
100
AcDbLine
 10
516.26958929
 20
140.778452666
 30
0.0
 11
516.5757360359999
 21
141.517556292
 31
0.0
  0
LINE
  5
258
330
20
100
AcDbEntity
  8
0
  6
Continuous
 62
     3
100
AcDbLine
 10
517.008692916
 20
140.47230592
 30
0.0
 11
517.3148396619999
 21
141.211409546
 31
0.0
  0
LINE
  5
259
330
20
100
AcDbEntity
  8
0
  6
Continuous
 62
     3
100
AcDbLine
 10
515.3495559199999
 20
142.999609706
 30
0.0
 11
516.088659546
 21
142.69346296
 31
0.0
  0
LINE
  5
25A
330
20
100
AcDbEntity
  8
0
  6
Continuous
 62
     3
100
AcDbLine
 10
517.876859706
 20
144.658746702
 30
0.0
 11
517.57071296
 21
143.919643076
 31
0.0
  0
LINE
  5
25B
330
20
100
AcDbEntity
  8
0
  6
Continuous
 62
     3
100
AcDbLine
 10
519.5359967019999
 20
142.131442916
 30
0.0
 11
518.7968930759999
 21
142.437589662
 31
0.0
  0
LINE
  5
25C
330
20
100
AcDbEntity
  8
0
  6
Continuous
 62
     3
100
AcDbLine
 10
515.655702666
 20
143.738713332
 30
0.0
 11
516.394806292
 21
143.432566586
 31
0.0
  0
LINE
  5
25D
330
20
100
AcDbEntity
  8
0
  6
Continuous
 62
     3
100
AcDbLine
 10
518.6159633319999
 20
144.352599956
 30
0.0
 11
518.309816586
 21
143.61349633
 31
0.0
  0
LINE
  5
25E
330
20
100
AcDbEntity
  8
0
  6
Continuous
 62
     3
100
AcDbLine
 10
519.2298499559999
 20
141.39233929
 30
0.0
 11
518.49074633
 21
141.698486036
 31
0.0
  0
ARC
  5
25F
330
20
100
AcDbEntity
  8
0
  6
Continuous
 62
     3
100
AcDbCircle
 10
515.8749007529999
 20
141.916090991
 30
0.0
 40
0.8
100
AcDbArc
 50
329.8
 51
75.2
  0
ARC
  5
260
330
20
100
AcDbEntity
  8
0
  6
Continuous
 62
     3
100
AcDbCircle
 10
516.793340991
 20
144.133401869
 30
0.0
 40
0.8
100
AcDbArc
 50
239.8
 51
345.2
  0
ARC
  5
261
330
20
100
AcDbEntity
  8
0
  6
Continuous
 62
     3
100
AcDbCircle
 10
519.010651869
 20
143.214961631
 30
0.0
 40
0.8
100
AcDbArc
 50
149.8
 51
255.2
  0
ARC
  5
262
330
20
100
AcDbEntity
  8
0
  6
Continuous
 62
     3
100
AcDbCircle
 10
518.0922116309999
 20
140.997650753
 30
0.0
 40
0.8
100
AcDbArc
 50
59.8
 51
165.2
  0
LINE
  5
263
330
20
100
AcDbEntity
  8
0
  6
Continuous
 62
     3
100
AcDbLine
 10
527.5579999999999
 20
119.38075
 30
0.0
 11
530.92958004
 21
118.790723493
 31
0.0
  0
LINE
  5
264
330
20
100
AcDbEntity
  8
0
  6
Continuous
 62
     3
100
AcDbLine
 10
503.9353775199999
 20
95.23859274000001
 30
0.0
 11
504.4480265069999
 21
92.30916996000001
 31
0.0
  0
LINE
  5
265
330
20
100
AcDbEntity
  8
0
  6
Continuous
 62
     3
100
AcDbLine
 10
503.858
 20
95.68075
 30
0.0
 11
504.4480265069999
 21
92.30916996000001
 31
0.0
  0
CIRCLE
  5
266
330
20
100
AcDbEntity
  8
0
  6
Continuous
 62
     3
100
AcDbCircle
 10
509.007769241
 20
100.159882155
 30
0.0
 40
3.5
  0
LINE
  5
267
330
20
100
AcDbEntity
  8
0
  6
Continuous
 62
     3
100
AcDbLine
 10
511.100989633
 20
100.59396555
 30
0.0
 11
510.7948428869999
 21
101.333069176
 31
0.0
  0
LINE
  5
268
330
20
100
AcDbEntity
  8
0
  6
Continuous
 62
     3
100
AcDbLine
 10
508.5736858469999
 20
102.253102546
 30
0.0
 11
507.834582221
 21
101.9469558
 31
0.0
  0
LINE
  5
269
330
20
100
AcDbEntity
  8
0
  6
Continuous
 62
     3
100
AcDbLine
 10
506.91454885
 20
99.72579876000001
 30
0.0
 11
507.2206955959999
 21
98.98669513400001
 31
0.0
  0
LINE
  5
26A
330
20
100
AcDbEntity
  8
0
  6
Continuous
 62
     3
100
AcDbLine
 10
510.1809562619999
 20
98.372808509
 30
0.0
 11
509.441852636
 21
98.066661763
 31
0.0
  0
LINE
  5
26B
330
20
100
AcDbEntity
  8
0
  6
Continuous
 62
     3
100
AcDbLine
 10
507.834582221
 20
101.9469558
 30
0.0
 11
508.1407289659999
 21
101.207852174
 31
0.0
  0
LINE
  5
26C
330
20
100
AcDbEntity
  8
0
  6
Continuous
 62
     3
100
AcDbLine
 10
508.5736858469999
 20
102.253102546
 30
0.0
 11
508.879832592
 21
101.51399892
 31
0.0
  0
LINE
  5
26D
330
20
100
AcDbEntity
  8
0
  6
Continuous
 62
     3
100
AcDbLine
 10
506.91454885
 20
99.72579876000001
 30
0.0
 11
507.6536524759999
 21
100.031945506
 31
0.0
  0
LINE
  5
26E
330
20
100
AcDbEntity
  8
0
  6
Continuous
 62
     3
100
AcDbLine
 10
509.441852636
 20
98.066661763
 30
0.0
 11
509.1357058909999
 21
98.80576538900001
 31
0.0
  0
LINE
  5
26F
330
20
100
AcDbEntity
  8
0
  6
Continuous
 62
     3
100
AcDbLine
 10
511.100989633
 20
100.59396555
 30
0.0
 11
510.3618860069999
 21
100.287818804
 31
0.0
  0
LINE
  5
270
330
20
100
AcDbEntity
  8
0
  6
Continuous
 62
     3
100
AcDbLine
 10
507.2206955959999
 20
98.98669513400001
 30
0.0
 11
507.959799222
 21
99.29284188
 31
0.0
  0
LINE
  5
271
330
20
100
AcDbEntity
  8
0
  6
Continuous
 62
     3
100
AcDbLine
 10
510.1809562619999
 20
98.372808509
 30
0.0
 11
509.8748095169999
 21
99.111912135
 31
0.0
  0
LINE
  5
272
330
20
100
AcDbEntity
  8
0
  6
Continuous
 62
     3
100
AcDbLine
 10
510.7948428869999
 20
101.333069176
 30
0.0
 11
510.0557392609999
 21
101.02692243
 31
0.0
  0
ARC
  5
273
330
20
100
AcDbEntity
  8
0
  6
Continuous
 62
     3
100
AcDbCircle
 10
507.439893684
 20
100.809317475
 30
0.0
 40
0.8
100
AcDbArc
 50
284.8
 51
30.2
  0
ARC
  5
274
330
20
100
AcDbEntity
  8
0
  6
Continuous
 62
     3
100
AcDbCircle
 10
508.358333921
 20
98.592006597
 30
0.0
 40
0.8
100
AcDbArc
 50
14.8
 51
120.2
  0
ARC
  5
275
330
20
100
AcDbEntity
  8
0
  6
Continuous
 62
     3
100
AcDbCircle
 10
510.575644799
 20
99.51044683500001
 30
0.0
 40
0.8
100
AcDbArc
 50
104.8
 51
210.2
  0
ARC
  5
276
330
20
100
AcDbEntity
  8
0
  6
Continuous
 62
     3
100
AcDbCircle
 10
509.6572045619999
 20
101.727757713
 30
0.0
 40
0.8
100
AcDbArc
 50
194.8
 51
300.2
  0
ARC
  5
277
330
20
100
AcDbEntity
  8
0
  6
Continuous
 62
     3
100
AcDbCircle
 10
509.007769241
 20
100.159882155
 30
0.0
 40
4.909175083
100
AcDbArc
 50
34.268288932
 51
195.975233368
  0
LINE
  5
278
330
20
100
AcDbEntity
  8
0
  6
Continuous
 62
     3
100
AcDbLine
 10
513.059707565
 20
102.920642163
 30
0.0
 11
516.834447895
 21
97.18356680900001
 31
0.0
  0
LINE
  5
279
330
20
100
AcDbEntity
  8
0
  6
Continuous
 62
     3
100
AcDbLine
 10
504.288182803
 20
98.808770074
 30
0.0
 11
506.232847522
 21
92.66295244
 31
0.0
  0
CIRCLE
  5
27A
330
20
100
AcDbEntity
  8
0
  6
Continuous
 62
     3
100
AcDbCircle
 10
517.4427763109999
 20
105.795973689
 30
0.0
 40
3.5
  0
ARC
  5
27B
330
20
100
AcDbEntity
  8
0
  6
Continuous
 62
     3
100
AcDbCircle
 10
517.4427763109999
 20
105.795973689
 30
0.0
 40
4.909175083
100
AcDbArc
 50
56.768288932
 51
218.475233368
  0
LINE
  5
27C
330
20
100
AcDbEntity
  8
0
  6
Continuous
 62
     3
100
AcDbLine
 10
520.129782079
 20
109.89719302
 30
0.0
 11
525.812671099
 21
106.041357111
 31
0.0
  0
LINE
  5
27D
330
20
100
AcDbEntity
  8
0
  6
Continuous
 62
     3
100
AcDbLine
 10
513.5994952069999
 20
102.741601354
 30
0.0
 11
517.748033725
 21
97.80779720099999
 31
0.0
  0
CIRCLE
  5
27E
330
20
100
AcDbEntity
  8
0
  6
Continuous
 62
     3
100
AcDbCircle
 10
523.0788678449999
 20
114.230980759
 30
0.0
 40
3.5
  0
LINE
  5
27F
330
20
100
AcDbEntity
  8
0
  6
Continuous
 62
     3
100
AcDbLine
 10
524.2520548659999
 20
116.018054404
 30
0.0
 11
523.51295124
 21
116.32420115
 31
0.0
  0
LINE
  5
280
330
20
100
AcDbEntity
  8
0
  6
Continuous
 62
     3
100
AcDbLine
 10
521.2917942
 20
115.404167779
 30
0.0
 11
520.985647454
 21
114.665064153
 31
0.0
  0
LINE
  5
281
330
20
100
AcDbEntity
  8
0
  6
Continuous
 62
     3
100
AcDbLine
 10
521.905680824
 20
112.443907113
 30
0.0
 11
522.6447844499999
 21
112.137760367
 31
0.0
  0
LINE
  5
282
330
20
100
AcDbEntity
  8
0
  6
Continuous
 62
     3
100
AcDbLine
 10
525.172088237
 20
113.796897364
 30
0.0
 11
524.8659414909999
 21
113.057793738
 31
0.0
  0
LINE
  5
283
330
20
100
AcDbEntity
  8
0
  6
Continuous
 62
     3
100
AcDbLine
 10
520.985647454
 20
114.665064153
 30
0.0
 11
521.72475108
 21
114.358917408
 31
0.0
  0
LINE
  5
284
330
20
100
AcDbEntity
  8
0
  6
Continuous
 62
     3
100
AcDbLine
 10
521.2917942
 20
115.404167779
 30
0.0
 11
522.030897826
 21
115.098021034
 31
0.0
  0
LINE
  5
285
330
20
100
AcDbEntity
  8
0
  6
Continuous
 62
     3
100
AcDbLine
 10
521.905680824
 20
112.443907113
 30
0.0
 11
522.2118275699999
 21
113.183010739
 31
0.0
  0
LINE
  5
286
330
20
100
AcDbEntity
  8
0
  6
Continuous
 62
     3
100
AcDbLine
 10
524.8659414909999
 20
113.057793738
 30
0.0
 11
524.126837865
 21
113.363940483
 31
0.0
  0
LINE
  5
287
330
20
100
AcDbEntity
  8
0
  6
Continuous
 62
     3
100
AcDbLine
 10
524.2520548659999
 20
116.018054404
 30
0.0
 11
523.94590812
 21
115.278950778
 31
0.0
  0
LINE
  5
288
330
20
100
AcDbEntity
  8
0
  6
Continuous
 62
     3
100
AcDbLine
 10
522.6447844499999
 20
112.137760367
 30
0.0
 11
522.9509311959999
 21
112.876863993
 31
0.0
  0
LINE
  5
289
330
20
100
AcDbEntity
  8
0
  6
Continuous
 62
     3
100
AcDbLine
 10
525.172088237
 20
113.796897364
 30
0.0
 11
524.4329846109999
 21
114.103044109
 31
0.0
  0
LINE
  5
28A
330
20
100
AcDbEntity
  8
0
  6
Continuous
 62
     3
100
AcDbLine
 10
523.51295124
 20
116.32420115
 30
0.0
 11
523.206804494
 21
115.585097524
 31
0.0
  0
ARC
  5
28B
330
20
100
AcDbEntity
  8
0
  6
Continuous
 62
     3
100
AcDbCircle
 10
521.5109922869999
 20
113.581545438
 30
0.0
 40
0.8
100
AcDbArc
 50
329.8
 51
75.2
  0
ARC
  5
28C
330
20
100
AcDbEntity
  8
0
  6
Continuous
 62
     3
100
AcDbCircle
 10
523.728303165
 20
112.663105201
 30
0.0
 40
0.8
100
AcDbArc
 50
59.8
 51
165.2
  0
ARC
  5
28D
330
20
100
AcDbEntity
  8
0
  6
Continuous
 62
     3
100
AcDbCircle
 10
524.6467434030001
 20
114.880416079
 30
0.0
 40
0.8
100
AcDbArc
 50
149.8
 51
255.2
  0
ARC
  5
28E
330
20
100
AcDbEntity
  8
0
  6
Continuous
 62
     3
100
AcDbCircle
 10
522.429432525
 20
115.798856316
 30
0.0
 40
0.8
100
AcDbArc
 50
239.8
 51
345.2
  0
ARC
  5
28F
330
20
100
AcDbEntity
  8
0
  6
Continuous
 62
     3
100
AcDbCircle
 10
523.0788678449999
 20
114.230980759
 30
0.0
 40
4.909175083
100
AcDbArc
 50
79.268288932
 51
240.975233368
  0
LINE
  5
290
330
20
100
AcDbEntity
  8
0
  6
Continuous
 62
     3
100
AcDbLine
 10
523.991868788
 20
119.048285947
 30
0.0
 11
530.7177381589999
 21
117.660705545
 31
0.0
  0
LINE
  5
291
330
20
100
AcDbEntity
  8
0
  6
Continuous
 62
     3
100
AcDbLine
 10
520.696996785
 20
109.93834867
 30
0.0
 11
526.4178317189999
 21
106.967684954
 31
0.0
  0
LINE
  5
292
330
20
100
AcDbEntity
  8
0
  6
Continuous
 62
     3
100
AcDbLine
 10
528.00015726
 20
119.30337248
 30
0.0
 11
530.92958004
 21
118.790723493
 31
0.0
  0
LINE
  5
293
330
20
100
AcDbEntity
  8
0
  6
Continuous
 62
     3
100
AcDbLine
 10
519.5359967019999
 20
106.230057084
 30
0.0
 11
519.2298499559999
 21
106.96916071
 31
0.0
  0
LINE
  5
294
330
20
100
AcDbEntity
  8
0
  6
Continuous
 62
     3
100
AcDbLine
 10
517.008692916
 20
107.88919408
 30
0.0
 11
516.26958929
 21
107.583047334
 31
0.0
  0
LINE
  5
295
330
20
100
AcDbEntity
  8
0
  6
Continuous
 62
     3
100
AcDbLine
 10
515.3495559199999
 20
105.361890294
 30
0.0
 11
515.655702666
 21
104.622786668
 31
0.0
  0
LINE
  5
296
330
20
100
AcDbEntity
  8
0
  6
Continuous
 62
     3
100
AcDbLine
 10
518.6159633319999
 20
104.008900044
 30
0.0
 11
517.876859706
 21
103.702753298
 31
0.0
  0
LINE
  5
297
330
20
100
AcDbEntity
  8
0
  6
Continuous
 62
     3
100
AcDbLine
 10
516.26958929
 20
107.583047334
 30
0.0
 11
516.5757360359999
 21
106.843943708
 31
0.0
  0
LINE
  5
298
330
20
100
AcDbEntity
  8
0
  6
Continuous
 62
     3
100
AcDbLine
 10
517.008692916
 20
107.88919408
 30
0.0
 11
517.3148396619999
 21
107.150090454
 31
0.0
  0
LINE
  5
299
330
20
100
AcDbEntity
  8
0
  6
Continuous
 62
     3
100
AcDbLine
 10
515.3495559199999
 20
105.361890294
 30
0.0
 11
516.088659546
 21
105.66803704
 31
0.0
  0
LINE
  5
29A
330
20
100
AcDbEntity
  8
0
  6
Continuous
 62
     3
100
AcDbLine
 10
517.876859706
 20
103.702753298
 30
0.0
 11
517.57071296
 21
104.441856924
 31
0.0
  0
LINE
  5
29B
330
20
100
AcDbEntity
  8
0
  6
Continuous
 62
     3
100
AcDbLine
 10
519.5359967019999
 20
106.230057084
 30
0.0
 11
518.7968930759999
 21
105.923910338
 31
0.0
  0
LINE
  5
29C
330
20
100
AcDbEntity
  8
0
  6
Continuous
 62
     3
100
AcDbLine
 10
515.655702666
 20
104.622786668
 30
0.0
 11
516.394806292
 21
104.928933414
 31
0.0
  0
LINE
  5
29D
330
20
100
AcDbEntity
  8
0
  6
Continuous
 62
     3
100
AcDbLine
 10
518.6159633319999
 20
104.008900044
 30
0.0
 11
518.309816586
 21
104.74800367
 31
0.0
  0
LINE
  5
29E
330
20
100
AcDbEntity
  8
0
  6
Continuous
 62
     3
100
AcDbLine
 10
519.2298499559999
 20
106.96916071
 30
0.0
 11
518.49074633
 21
106.663013964
 31
0.0
  0
ARC
  5
29F
330
20
100
AcDbEntity
  8
0
  6
Continuous
 62
     3
100
AcDbCircle
 10
515.8749007529999
 20
106.445409009
 30
0.0
 40
0.8
100
AcDbArc
 50
284.8
 51
30.2
  0
ARC
  5
2A0
330
20
100
AcDbEntity
  8
0
  6
Continuous
 62
     3
100
AcDbCircle
 10
516.793340991
 20
104.228098131
 30
0.0
 40
0.8
100
AcDbArc
 50
14.8
 51
120.2
  0
ARC
  5
2A1
330
20
100
AcDbEntity
  8
0
  6
Continuous
 62
     3
100
AcDbCircle
 10
519.010651869
 20
105.146538369
 30
0.0
 40
0.8
100
AcDbArc
 50
104.8
 51
210.2
  0
ARC
  5
2A2
330
20
100
AcDbEntity
  8
0
  6
Continuous
 62
     3
100
AcDbCircle
 10
518.0922116309999
 20
107.363849247
 30
0.0
 40
0.8
100
AcDbArc
 50
194.8
 51
300.2
  0
LINE
  5
2A3
330
20
100
AcDbEntity
  8
0
  6
Continuous
 62
     3
100
AcDbLine
 10
470.11584274
 20
119.30337248
 30
0.0
 11
467.18641996
 21
118.790723493
 31
0.0
  0
LINE
  5
2A4
330
20
100
AcDbEntity
  8
0
  6
Continuous
 62
     3
100
AcDbLine
 10
494.2520137159999
 20
95.68199714200002
 30
0.0
 11
493.667973493
 21
92.30916996000001
 31
0.0
  0
LINE
  5
2A5
330
20
100
AcDbEntity
  8
0
  6
Continuous
 62
     3
100
AcDbLine
 10
470.558
 20
119.38075
 30
0.0
 11
467.18641996
 21
118.790723493
 31
0.0
  0
LINE
  5
2A6
330
20
100
AcDbEntity
  8
0
  6
Continuous
 62
     3
100
AcDbLine
 10
494.18062248
 20
95.23859274000001
 30
0.0
 11
493.667973493
 21
92.30916996000001
 31
0.0
  0
LINE
  5
2A7
330
20
100
AcDbEntity
  8
0
  6
Continuous
 62
     3
100
AcDbLine
 10
494.258
 20
95.68075
 30
0.0
 11
493.667973493
 21
92.30916996000001
 31
0.0
  0
CIRCLE
  5
2A8
330
20
100
AcDbEntity
  8
0
  6
Continuous
 62
     3
100
AcDbCircle
 10
489.108230759
 20
100.159882155
 30
0.0
 40
3.5
  0
LINE
  5
2A9
330
20
100
AcDbEntity
  8
0
  6
Continuous
 62
     3
100
AcDbLine
 10
487.0150103669999
 20
100.59396555
 30
0.0
 11
487.321157113
 21
101.333069176
 31
0.0
  0
LINE
  5
2AA
330
20
100
AcDbEntity
  8
0
  6
Continuous
 62
     3
100
AcDbLine
 10
489.542314153
 20
102.253102546
 30
0.0
 11
490.281417779
 21
101.9469558
 31
0.0
  0
LINE
  5
2AB
330
20
100
AcDbEntity
  8
0
  6
Continuous
 62
     3
100
AcDbLine
 10
491.20145115
 20
99.72579876000001
 30
0.0
 11
490.895304404
 21
98.98669513400001
 31
0.0
  0
LINE
  5
2AC
330
20
100
AcDbEntity
  8
0
  6
Continuous
 62
     3
100
AcDbLine
 10
487.935043738
 20
98.372808509
 30
0.0
 11
488.6741473639999
 21
98.066661763
 31
0.0
  0
LINE
  5
2AD
330
20
100
AcDbEntity
  8
0
  6
Continuous
 62
     3
100
AcDbLine
 10
490.281417779
 20
101.9469558
 30
0.0
 11
489.975271034
 21
101.207852174
 31
0.0
  0
LINE
  5
2AE
330
20
100
AcDbEntity
  8
0
  6
Continuous
 62
     3
100
AcDbLine
 10
489.542314153
 20
102.253102546
 30
0.0
 11
489.236167408
 21
101.51399892
 31
0.0
  0
LINE
  5
2AF
330
20
100
AcDbEntity
  8
0
  6
Continuous
 62
     3
100
AcDbLine
 10
491.20145115
 20
99.72579876000001
 30
0.0
 11
490.462347524
 21
100.031945506
 31
0.0
  0
LINE
  5
2B0
330
20
100
AcDbEntity
  8
0
  6
Continuous
 62
     3
100
AcDbLine
 10
488.6741473639999
 20
98.066661763
 30
0.0
 11
488.980294109
 21
98.80576538900001
 31
0.0
  0
LINE
  5
2B1
330
20
100
AcDbEntity
  8
0
  6
Continuous
 62
     3
100
AcDbLine
 10
487.0150103669999
 20
100.59396555
 30
0.0
 11
487.754113993
 21
100.287818804
 31
0.0
  0
LINE
  5
2B2
330
20
100
AcDbEntity
  8
0
  6
Continuous
 62
     3
100
AcDbLine
 10
490.895304404
 20
98.98669513400001
 30
0.0
 11
490.1562007779999
 21
99.29284188
 31
0.0
  0
LINE
  5
2B3
330
20
100
AcDbEntity
  8
0
  6
Continuous
 62
     3
100
AcDbLine
 10
487.935043738
 20
98.372808509
 30
0.0
 11
488.241190483
 21
99.111912135
 31
0.0
  0
LINE
  5
2B4
330
20
100
AcDbEntity
  8
0
  6
Continuous
 62
     3
100
AcDbLine
 10
487.321157113
 20
101.333069176
 30
0.0
 11
488.060260739
 21
101.02692243
 31
0.0
  0
ARC
  5
2B5
330
20
100
AcDbEntity
  8
0
  6
Continuous
 62
     3
100
AcDbCircle
 10
490.6761063159999
 20
100.809317475
 30
0.0
 40
0.8
100
AcDbArc
 50
149.8
 51
255.2
  0
ARC
  5
2B6
330
20
100
AcDbEntity
  8
0
  6
Continuous
 62
     3
100
AcDbCircle
 10
489.757666079
 20
98.592006597
 30
0.0
 40
0.8
100
AcDbArc
 50
59.8
 51
165.2
  0
ARC
  5
2B7
330
20
100
AcDbEntity
  8
0
  6
Continuous
 62
     3
100
AcDbCircle
 10
487.5403552009999
 20
99.51044683500001
 30
0.0
 40
0.8
100
AcDbArc
 50
329.8
 51
75.2
  0
ARC
  5
2B8
330
20
100
AcDbEntity
  8
0
  6
Continuous
 62
     3
100
AcDbCircle
 10
488.458795438
 20
101.727757713
 30
0.0
 40
0.8
100
AcDbArc
 50
239.8
 51
345.2
  0
ARC
  5
2B9
330
20
100
AcDbEntity
  8
0
  6
Continuous
 62
     3
100
AcDbCircle
 10
489.108230759
 20
100.159882155
 30
0.0
 40
4.909175083
100
AcDbArc
 50
344.024766632
 51
145.731711068
  0
LINE
  5
2BA
330
20
100
AcDbEntity
  8
0
  6
Continuous
 62
     3
100
AcDbLine
 10
485.056292435
 20
102.920642163
 30
0.0
 11
481.281552105
 21
97.18356680900001
 31
0.0
  0
LINE
  5
2BB
330
20
100
AcDbEntity
  8
0
  6
Continuous
 62
     3
100
AcDbLine
 10
493.8278171969999
 20
98.808770074
 30
0.0
 11
491.883152478
 21
92.66295244
 31
0.0
  0
CIRCLE
  5
2BC
330
20
100
AcDbEntity
  8
0
  6
Continuous
 62
     3
100
AcDbCircle
 10
480.673223689
 20
105.795973689
 30
0.0
 40
3.5
  0
ARC
  5
2BD
330
20
100
AcDbEntity
  8
0
  6
Continuous
 62
     3
100
AcDbCircle
 10
480.673223689
 20
105.795973689
 30
0.0
 40
4.909175083
100
AcDbArc
 50
321.524766632
 51
123.231711068
  0
LINE
  5
2BE
330
20
100
AcDbEntity
  8
0
  6
Continuous
 62
     3
100
AcDbLine
 10
477.986217921
 20
109.89719302
 30
0.0
 11
472.3033289009999
 21
106.041357111
 31
0.0
  0
LINE
  5
2BF
330
20
100
AcDbEntity
  8
0
  6
Continuous
 62
     3
100
AcDbLine
 10
484.516504793
 20
102.741601354
 30
0.0
 11
480.367966275
 21
97.80779720099999
 31
0.0
  0
CIRCLE
  5
2C0
330
20
100
AcDbEntity
  8
0
  6
Continuous
 62
     3
100
AcDbCircle
 10
475.037132155
 20
114.230980759
 30
0.0
 40
3.5
  0
LINE
  5
2C1
330
20
100
AcDbEntity
  8
0
  6
Continuous
 62
     3
100
AcDbLine
 10
473.863945134
 20
116.018054404
 30
0.0
 11
474.6030487599999
 21
116.32420115
 31
0.0
  0
LINE
  5
2C2
330
20
100
AcDbEntity
  8
0
  6
Continuous
 62
     3
100
AcDbLine
 10
476.8242058
 20
115.404167779
 30
0.0
 11
477.1303525459999
 21
114.665064153
 31
0.0
  0
LINE
  5
2C3
330
20
100
AcDbEntity
  8
0
  6
Continuous
 62
     3
100
AcDbLine
 10
476.2103191759999
 20
112.443907113
 30
0.0
 11
475.47121555
 21
112.137760367
 31
0.0
  0
LINE
  5
2C4
330
20
100
AcDbEntity
  8
0
  6
Continuous
 62
     3
100
AcDbLine
 10
472.943911763
 20
113.796897364
 30
0.0
 11
473.250058509
 21
113.057793738
 31
0.0
  0
LINE
  5
2C5
330
20
100
AcDbEntity
  8
0
  6
Continuous
 62
     3
100
AcDbLine
 10
477.1303525459999
 20
114.665064153
 30
0.0
 11
476.3912489199999
 21
114.358917408
 31
0.0
  0
LINE
  5
2C6
330
20
100
AcDbEntity
  8
0
  6
Continuous
 62
     3
100
AcDbLine
 10
476.8242058
 20
115.404167779
 30
0.0
 11
476.085102174
 21
115.098021034
 31
0.0
  0
LINE
  5
2C7
330
20
100
AcDbEntity
  8
0
  6
Continuous
 62
     3
100
AcDbLine
 10
476.2103191759999
 20
112.443907113
 30
0.0
 11
475.90417243
 21
113.183010739
 31
0.0
  0
LINE
  5
2C8
330
20
100
AcDbEntity
  8
0
  6
Continuous
 62
     3
100
AcDbLine
 10
473.250058509
 20
113.057793738
 30
0.0
 11
473.9891621349999
 21
113.363940483
 31
0.0
  0
LINE
  5
2C9
330
20
100
AcDbEntity
  8
0
  6
Continuous
 62
     3
100
AcDbLine
 10
473.863945134
 20
116.018054404
 30
0.0
 11
474.1700918799999
 21
115.278950778
 31
0.0
  0
LINE
  5
2CA
330
20
100
AcDbEntity
  8
0
  6
Continuous
 62
     3
100
AcDbLine
 10
475.47121555
 20
112.137760367
 30
0.0
 11
475.165068804
 21
112.876863993
 31
0.0
  0
LINE
  5
2CB
330
20
100
AcDbEntity
  8
0
  6
Continuous
 62
     3
100
AcDbLine
 10
472.943911763
 20
113.796897364
 30
0.0
 11
473.6830153889999
 21
114.103044109
 31
0.0
  0
LINE
  5
2CC
330
20
100
AcDbEntity
  8
0
  6
Continuous
 62
     3
100
AcDbLine
 10
474.6030487599999
 20
116.32420115
 30
0.0
 11
474.9091955059999
 21
115.585097524
 31
0.0
  0
ARC
  5
2CD
330
20
100
AcDbEntity
  8
0
  6
Continuous
 62
     3
100
AcDbCircle
 10
476.605007713
 20
113.581545438
 30
0.0
 40
0.8
100
AcDbArc
 50
104.8
 51
210.2
  0
ARC
  5
2CE
330
20
100
AcDbEntity
  8
0
  6
Continuous
 62
     3
100
AcDbCircle
 10
474.387696835
 20
112.663105201
 30
0.0
 40
0.8
100
AcDbArc
 50
14.8
 51
120.2
  0
ARC
  5
2CF
330
20
100
AcDbEntity
  8
0
  6
Continuous
 62
     3
100
AcDbCircle
 10
473.4692565969999
 20
114.880416079
 30
0.0
 40
0.8
100
AcDbArc
 50
284.8
 51
30.2
  0
ARC
  5
2D0
330
20
100
AcDbEntity
  8
0
  6
Continuous
 62
     3
100
AcDbCircle
 10
475.686567475
 20
115.798856316
 30
0.0
 40
0.8
100
AcDbArc
 50
194.8
 51
300.2
  0
ARC
  5
2D1
330
20
100
AcDbEntity
  8
0
  6
Continuous
 62
     3
100
AcDbCircle
 10
475.037132155
 20
114.230980759
 30
0.0
 40
4.909175083
100
AcDbArc
 50
299.024766632
 51
100.731711068
  0
LINE
  5
2D2
330
20
100
AcDbEntity
  8
0
  6
Continuous
 62
     3
100
AcDbLine
 10
474.1241312119999
 20
119.048285947
 30
0.0
 11
467.398261841
 21
117.660705545
 31
0.0
  0
LINE
  5
2D3
330
20
100
AcDbEntity
  8
0
  6
Continuous
 62
     3
100
AcDbLine
 10
477.4190032149999
 20
109.93834867
 30
0.0
 11
471.698168281
 21
106.967684954
 31
0.0
  0
LINE
  5
2D4
330
20
100
AcDbEntity
  8
0
  6
Continuous
 62
     3
100
AcDbLine
 10
470.11584274
 20
119.30337248
 30
0.0
 11
467.18641996
 21
118.790723493
 31
0.0
  0
LINE
  5
2D5
330
20
100
AcDbEntity
  8
0
  6
Continuous
 62
     3
100
AcDbLine
 10
478.580003298
 20
106.230057084
 30
0.0
 11
478.886150044
 21
106.96916071
 31
0.0
  0
LINE
  5
2D6
330
20
100
AcDbEntity
  8
0
  6
Continuous
 62
     3
100
AcDbLine
 10
481.107307084
 20
107.88919408
 30
0.0
 11
481.8464107099999
 21
107.583047334
 31
0.0
  0
LINE
  5
2D7
330
20
100
AcDbEntity
  8
0
  6
Continuous
 62
     3
100
AcDbLine
 10
482.7664440799999
 20
105.361890294
 30
0.0
 11
482.460297334
 21
104.622786668
 31
0.0
  0
LINE
  5
2D8
330
20
100
AcDbEntity
  8
0
  6
Continuous
 62
     3
100
AcDbLine
 10
479.500036668
 20
104.008900044
 30
0.0
 11
480.239140294
 21
103.702753298
 31
0.0
  0
LINE
  5
2D9
330
20
100
AcDbEntity
  8
0
  6
Continuous
 62
     3
100
AcDbLine
 10
481.8464107099999
 20
107.583047334
 30
0.0
 11
481.540263964
 21
106.843943708
 31
0.0
  0
LINE
  5
2DA
330
20
100
AcDbEntity
  8
0
  6
Continuous
 62
     3
100
AcDbLine
 10
481.107307084
 20
107.88919408
 30
0.0
 11
480.801160338
 21
107.150090454
 31
0.0
  0
LINE
  5
2DB
330
20
100
AcDbEntity
  8
0
  6
Continuous
 62
     3
100
AcDbLine
 10
482.7664440799999
 20
105.361890294
 30
0.0
 11
482.0273404539999
 21
105.66803704
 31
0.0
  0
LINE
  5
2DC
330
20
100
AcDbEntity
  8
0
  6
Continuous
 62
     3
100
AcDbLine
 10
480.239140294
 20
103.702753298
 30
0.0
 11
480.5452870399999
 21
104.441856924
 31
0.0
  0
LINE
  5
2DD
330
20
100
AcDbEntity
  8
0
  6
Continuous
 62
     3
100
AcDbLine
 10
478.580003298
 20
106.230057084
 30
0.0
 11
479.319106924
 21
105.923910338
 31
0.0
  0
LINE
  5
2DE
330
20
100
AcDbEntity
  8
0
  6
Continuous
 62
     3
100
AcDbLine
 10
482.460297334
 20
104.622786668
 30
0.0
 11
481.721193708
 21
104.928933414
 31
0.0
  0
LINE
  5
2DF
330
20
100
AcDbEntity
  8
0
  6
Continuous
 62
     3
100
AcDbLine
 10
479.500036668
 20
104.008900044
 30
0.0
 11
479.806183414
 21
104.74800367
 31
0.0
  0
LINE
  5
2E0
330
20
100
AcDbEntity
  8
0
  6
Continuous
 62
     3
100
AcDbLine
 10
478.886150044
 20
106.96916071
 30
0.0
 11
479.6252536699999
 21
106.663013964
 31
0.0
  0
ARC
  5
2E1
330
20
100
AcDbEntity
  8
0
  6
Continuous
 62
     3
100
AcDbCircle
 10
482.241099247
 20
106.445409009
 30
0.0
 40
0.8
100
AcDbArc
 50
149.8
 51
255.2
  0
ARC
  5
2E2
330
20
100
AcDbEntity
  8
0
  6
Continuous
 62
     3
100
AcDbCircle
 10
481.322659009
 20
104.228098131
 30
0.0
 40
0.8
100
AcDbArc
 50
59.8
 51
165.2
  0
ARC
  5
2E3
330
20
100
AcDbEntity
  8
0
  6
Continuous
 62
     3
100
AcDbCircle
 10
479.1053481309999
 20
105.146538369
 30
0.0
 40
0.8
100
AcDbArc
 50
329.8
 51
75.2
  0
ARC
  5
2E4
330
20
100
AcDbEntity
  8
0
  6
Continuous
 62
     3
100
AcDbCircle
 10
480.023788369
 20
107.363849247
 30
0.0
 40
0.8
100
AcDbArc
 50
239.8
 51
345.2
  0
ARC
  5
2E5
330
20
100
AcDbEntity
  8
0
  6
Continuous
 62
     3
100
AcDbCircle
 10
499.058
 20
124.18075
 30
0.0
 40
32.324139586
100
AcDbArc
 50
273.836705909
 51
350.401132091
  0
ARC
  5
2E6
330
20
100
AcDbEntity
  8
0
  6
Continuous
 62
     3
100
AcDbCircle
 10
499.058
 20
124.18075
 30
0.0
 40
32.324139586
100
AcDbArc
 50
189.723528284
 51
266.163294091
  0
CIRCLE
  5
2E7
330
20
100
AcDbEntity
  8
0
  6
Continuous
 62
     3
100
AcDbCircle
 10
499.058
 20
124.18075
 30
0.0
 40
16.5
  0
CIRCLE
  5
2E8
330
20
100
AcDbEntity
  8
0
  6
Continuous
 62
     3
100
AcDbCircle
 10
478.858
 20
124.18075
 30
0.0
 40
2.799999999999999
  0
LINE
  5
2E9
330
20
100
AcDbEntity
  8
0
  6
Continuous
 62
     3
100
AcDbLine
 10
477.058
 20
123.88075
 30
0.0
 11
477.058
 21
124.48075
 31
0.0
  0
LINE
  5
2EA
330
20
100
AcDbEntity
  8
0
  6
Continuous
 62
     3
100
AcDbLine
 10
478.558
 20
125.98075
 30
0.0
 11
479.158
 21
125.98075
 31
0.0
  0
LINE
  5
2EB
330
20
100
AcDbEntity
  8
0
  6
Continuous
 62
     3
100
AcDbLine
 10
480.658
 20
123.88075
 30
0.0
 11
480.658
 21
124.48075
 31
0.0
  0
LINE
  5
2EC
330
20
100
AcDbEntity
  8
0
  6
Continuous
 62
     3
100
AcDbLine
 10
478.558
 20
122.38075
 30
0.0
 11
479.158
 21
122.38075
 31
0.0
  0
LINE
  5
2ED
330
20
100
AcDbEntity
  8
0
  6
Continuous
 62
     3
100
AcDbLine
 10
480.658
 20
123.88075
 30
0.0
 11
480.058
 21
123.88075
 31
0.0
  0
LINE
  5
2EE
330
20
100
AcDbEntity
  8
0
  6
Continuous
 62
     3
100
AcDbLine
 10
479.158
 20
122.38075
 30
0.0
 11
479.158
 21
122.98075
 31
0.0
  0
LINE
  5
2EF
330
20
100
AcDbEntity
  8
0
  6
Continuous
 62
     3
100
AcDbLine
 10
478.558
 20
122.38075
 30
0.0
 11
478.558
 21
122.98075
 31
0.0
  0
LINE
  5
2F0
330
20
100
AcDbEntity
  8
0
  6
Continuous
 62
     3
100
AcDbLine
 10
477.058
 20
124.48075
 30
0.0
 11
477.658
 21
124.48075
 31
0.0
  0
LINE
  5
2F1
330
20
100
AcDbEntity
  8
0
  6
Continuous
 62
     3
100
AcDbLine
 10
479.158
 20
125.98075
 30
0.0
 11
479.158
 21
125.38075
 31
0.0
  0
LINE
  5
2F2
330
20
100
AcDbEntity
  8
0
  6
Continuous
 62
     3
100
AcDbLine
 10
480.658
 20
123.88075
 30
0.0
 11
480.058
 21
123.88075
 31
0.0
  0
LINE
  5
2F3
330
20
100
AcDbEntity
  8
0
  6
Continuous
 62
     3
100
AcDbLine
 10
480.658
 20
124.48075
 30
0.0
 11
480.058
 21
124.48075
 31
0.0
  0
LINE
  5
2F4
330
20
100
AcDbEntity
  8
0
  6
Continuous
 62
     3
100
AcDbLine
 10
478.558
 20
125.98075
 30
0.0
 11
478.558
 21
125.38075
 31
0.0
  0
LINE
  5
2F5
330
20
100
AcDbEntity
  8
0
  6
Continuous
 62
     3
100
AcDbLine
 10
477.058
 20
123.88075
 30
0.0
 11
477.658
 21
123.88075
 31
0.0
  0
ARC
  5
2F6
330
20
100
AcDbEntity
  8
0
  6
Continuous
 62
     3
100
AcDbCircle
 10
479.958
 20
125.28075
 30
0.0
 40
0.8
100
AcDbArc
 50
172.3
 51
277.7
  0
ARC
  5
2F7
330
20
100
AcDbEntity
  8
0
  6
Continuous
 62
     3
100
AcDbCircle
 10
477.758
 20
125.28075
 30
0.0
 40
0.8
100
AcDbArc
 50
262.3
 51
7.699999999999999
  0
ARC
  5
2F8
330
20
100
AcDbEntity
  8
0
  6
Continuous
 62
     3
100
AcDbCircle
 10
477.758
 20
123.08075
 30
0.0
 40
0.8
100
AcDbArc
 50
352.3
 51
97.70000000000001
  0
ARC
  5
2F9
330
20
100
AcDbEntity
  8
0
  6
Continuous
 62
     3
100
AcDbCircle
 10
479.958
 20
123.08075
 30
0.0
 40
0.8
100
AcDbArc
 50
82.3
 51
187.7
  0
LINE
  5
2FA
330
20
100
AcDbEntity
  8
0
  6
Continuous
 62
     3
100
AcDbLine
 10
478.858
 20
127.604198554
 30
0.0
 11
482.9170582679999
 21
127.604198554
 31
0.0
  0
LINE
  5
2FB
330
20
100
AcDbEntity
  8
0
  6
Continuous
 62
     3
100
AcDbLine
 10
478.858
 20
120.757301446
 30
0.0
 11
482.9579999999999
 21
120.757301446
 31
0.0
  0
ARC
  5
2FC
330
20
100
AcDbEntity
  8
0
  6
Continuous
 62
     3
100
AcDbCircle
 10
478.858
 20
124.18075
 30
0.0
 40
3.423448553999999
100
AcDbArc
 50
90.0
 51
270.0
  0
CIRCLE
  5
2FD
330
20
100
AcDbEntity
  8
0
  6
Continuous
 62
     3
100
AcDbCircle
 10
519.258
 20
124.18075
 30
0.0
 40
2.799999999999999
  0
LINE
  5
2FE
330
20
100
AcDbEntity
  8
0
  6
Continuous
 62
     3
100
AcDbLine
 10
521.058
 20
123.88075
 30
0.0
 11
521.058
 21
124.48075
 31
0.0
  0
LINE
  5
2FF
330
20
100
AcDbEntity
  8
0
  6
Continuous
 62
     3
100
AcDbLine
 10
519.5579999999999
 20
125.98075
 30
0.0
 11
518.9580000000001
 21
125.98075
 31
0.0
  0
LINE
  5
300
330
20
100
AcDbEntity
  8
0
  6
Continuous
 62
     3
100
AcDbLine
 10
517.458
 20
123.88075
 30
0.0
 11
517.458
 21
124.48075
 31
0.0
  0
LINE
  5
301
330
20
100
AcDbEntity
  8
0
  6
Continuous
 62
     3
100
AcDbLine
 10
519.5579999999999
 20
122.38075
 30
0.0
 11
518.9580000000001
 21
122.38075
 31
0.0
  0
LINE
  5
302
330
20
100
AcDbEntity
  8
0
  6
Continuous
 62
     3
100
AcDbLine
 10
517.458
 20
123.88075
 30
0.0
 11
518.0579999999999
 21
123.88075
 31
0.0
  0
LINE
  5
303
330
20
100
AcDbEntity
  8
0
  6
Continuous
 62
     3
100
AcDbLine
 10
518.9580000000001
 20
122.38075
 30
0.0
 11
518.9580000000001
 21
122.98075
 31
0.0
  0
LINE
  5
304
330
20
100
AcDbEntity
  8
0
  6
Continuous
 62
     3
100
AcDbLine
 10
519.5579999999999
 20
122.38075
 30
0.0
 11
519.5579999999999
 21
122.98075
 31
0.0
  0
LINE
  5
305
330
20
100
AcDbEntity
  8
0
  6
Continuous
 62
     3
100
AcDbLine
 10
521.058
 20
124.48075
 30
0.0
 11
520.458
 21
124.48075
 31
0.0
  0
LINE
  5
306
330
20
100
AcDbEntity
  8
0
  6
Continuous
 62
     3
100
AcDbLine
 10
518.9580000000001
 20
125.98075
 30
0.0
 11
518.9580000000001
 21
125.38075
 31
0.0
  0
LINE
  5
307
330
20
100
AcDbEntity
  8
0
  6
Continuous
 62
     3
100
AcDbLine
 10
517.458
 20
123.88075
 30
0.0
 11
518.0579999999999
 21
123.88075
 31
0.0
  0
LINE
  5
308
330
20
100
AcDbEntity
  8
0
  6
Continuous
 62
     3
100
AcDbLine
 10
517.458
 20
124.48075
 30
0.0
 11
518.0579999999999
 21
124.48075
 31
0.0
  0
LINE
  5
309
330
20
100
AcDbEntity
  8
0
  6
Continuous
 62
     3
100
AcDbLine
 10
519.5579999999999
 20
125.98075
 30
0.0
 11
519.5579999999999
 21
125.38075
 31
0.0
  0
LINE
  5
30A
330
20
100
AcDbEntity
  8
0
  6
Continuous
 62
     3
100
AcDbLine
 10
521.058
 20
123.88075
 30
0.0
 11
520.458
 21
123.88075
 31
0.0
  0
ARC
  5
30B
330
20
100
AcDbEntity
  8
0
  6
Continuous
 62
     3
100
AcDbCircle
 10
518.158
 20
125.28075
 30
0.0
 40
0.8
100
AcDbArc
 50
262.3
 51
7.699999999999999
  0
ARC
  5
30C
330
20
100
AcDbEntity
  8
0
  6
Continuous
 62
     3
100
AcDbCircle
 10
520.358
 20
125.28075
 30
0.0
 40
0.8
100
AcDbArc
 50
172.3
 51
277.7
  0
ARC
  5
30D
330
20
100
AcDbEntity
  8
0
  6
Continuous
 62
     3
100
AcDbCircle
 10
520.358
 20
123.08075
 30
0.0
 40
0.8
100
AcDbArc
 50
82.3
 51
187.7
  0
ARC
  5
30E
330
20
100
AcDbEntity
  8
0
  6
Continuous
 62
     3
100
AcDbCircle
 10
518.158
 20
123.08075
 30
0.0
 40
0.8
100
AcDbArc
 50
352.3
 51
97.70000000000001
  0
LINE
  5
30F
330
20
100
AcDbEntity
  8
0
  6
Continuous
 62
     3
100
AcDbLine
 10
519.258
 20
127.604198554
 30
0.0
 11
515.198941732
 21
127.604198554
 31
0.0
  0
LINE
  5
310
330
20
100
AcDbEntity
  8
0
  6
Continuous
 62
     3
100
AcDbLine
 10
519.258
 20
120.757301446
 30
0.0
 11
515.158
 21
120.757301446
 31
0.0
  0
ARC
  5
311
330
20
100
AcDbEntity
  8
0
  6
Continuous
 62
     3
100
AcDbCircle
 10
519.258
 20
124.18075
 30
0.0
 40
3.423448553999999
100
AcDbArc
 50
270.0
 51
90.0
  0
LINE
  5
312
330
20
100
AcDbEntity
  8
0
  6
LTYPE1
 62
     1
100
AcDbLine
 10
163.958
 20
151.48075
 30
0.0
 11
163.958
 21
160.88075
 31
0.0
  0
LINE
  5
313
330
20
100
AcDbEntity
  8
0
  6
LTYPE1
 62
     1
100
AcDbLine
 10
168.658
 20
156.18075
 30
0.0
 11
159.258
 21
156.18075
 31
0.0
  0
LINE
  5
314
330
20
100
AcDbEntity
  8
0
  6
LTYPE1
 62
     1
100
AcDbLine
 10
163.958
 20
96.88075000000001
 30
0.0
 11
163.958
 21
87.48075
 31
0.0
  0
LINE
  5
315
330
20
100
AcDbEntity
  8
0
  6
LTYPE1
 62
     1
100
AcDbLine
 10
168.658
 20
92.18075
 30
0.0
 11
159.258
 21
92.18075
 31
0.0
  0
LINE
  5
316
330
20
100
AcDbEntity
  8
0
  6
LTYPE1
 62
     1
100
AcDbLine
 10
99.958
 20
151.48075
 30
0.0
 11
99.958
 21
160.88075
 31
0.0
  0
LINE
  5
317
330
20
100
AcDbEntity
  8
0
  6
LTYPE1
 62
     1
100
AcDbLine
 10
95.258
 20
156.18075
 30
0.0
 11
104.658
 21
156.18075
 31
0.0
  0
LINE
  5
318
330
20
100
AcDbEntity
  8
0
  6
LTYPE1
 62
     1
100
AcDbLine
 10
99.958
 20
96.88075000000001
 30
0.0
 11
99.958
 21
87.48075
 31
0.0
  0
LINE
  5
319
330
20
100
AcDbEntity
  8
0
  6
LTYPE1
 62
     1
100
AcDbLine
 10
95.258
 20
92.18075
 30
0.0
 11
104.658
 21
92.18075
 31
0.0
  0
LINE
  5
31A
330
20
100
AcDbEntity
  8
0
  6
LTYPE1
 62
     1
100
AcDbLine
 10
284.558
 20
157.28075
 30
0.0
 11
269.558
 21
157.28075
 31
0.0
  0
LINE
  5
31B
330
20
100
AcDbEntity
  8
0
  6
LTYPE1
 62
     1
100
AcDbLine
 10
269.558
 20
155.08075
 30
0.0
 11
284.558
 21
155.08075
 31
0.0
  0
LINE
  5
31C
330
20
100
AcDbEntity
  8
0
  6
LTYPE1
 62
     1
100
AcDbLine
 10
266.058
 20
156.18075
 30
0.0
 11
285.058
 21
156.18075
 31
0.0
  0
LINE
  5
31D
330
20
100
AcDbEntity
  8
0
  6
LTYPE1
 62
     1
100
AcDbLine
 10
284.558
 20
91.08074999999999
 30
0.0
 11
269.558
 21
91.08074999999999
 31
0.0
  0
LINE
  5
31E
330
20
100
AcDbEntity
  8
0
  6
LTYPE1
 62
     1
100
AcDbLine
 10
269.558
 20
93.28075
 30
0.0
 11
284.558
 21
93.28075
 31
0.0
  0
LINE
  5
31F
330
20
100
AcDbEntity
  8
0
  6
LTYPE1
 62
     1
100
AcDbLine
 10
266.058
 20
92.18075
 30
0.0
 11
285.058
 21
92.18075
 31
0.0
  0
LINE
  5
320
330
20
100
AcDbEntity
  8
0
  6
LTYPE1
 62
     1
100
AcDbLine
 10
379.658
 20
124.18075
 30
0.0
 11
392.258
 21
124.18075
 31
0.0
  0
LINE
  5
321
330
20
100
AcDbEntity
  8
0
  6
LTYPE1
 62
     1
100
AcDbLine
 10
103.658
 20
292.48075
 30
0.0
 11
103.658
 21
299.48075
 31
0.0
  0
LINE
  5
322
330
20
100
AcDbEntity
  8
0
  6
LTYPE1
 62
     1
100
AcDbLine
 10
107.158
 20
295.98075
 30
0.0
 11
100.158
 21
295.98075
 31
0.0
  0
LINE
  5
323
330
20
100
AcDbEntity
  8
0
  6
LTYPE1
 62
     1
100
AcDbLine
 10
167.658
 20
292.48075
 30
0.0
 11
167.658
 21
299.48075
 31
0.0
  0
LINE
  5
324
330
20
100
AcDbEntity
  8
0
  6
LTYPE1
 62
     1
100
AcDbLine
 10
164.158
 20
295.98075
 30
0.0
 11
171.158
 21
295.98075
 31
0.0
  0
LINE
  5
325
330
20
100
AcDbEntity
  8
0
  6
LTYPE1
 62
     1
100
AcDbLine
 10
103.658
 20
235.48075
 30
0.0
 11
103.658
 21
228.48075
 31
0.0
  0
LINE
  5
326
330
20
100
AcDbEntity
  8
0
  6
LTYPE1
 62
     1
100
AcDbLine
 10
107.158
 20
231.98075
 30
0.0
 11
100.158
 21
231.98075
 31
0.0
  0
LINE
  5
327
330
20
100
AcDbEntity
  8
0
  6
LTYPE1
 62
     1
100
AcDbLine
 10
167.658
 20
235.48075
 30
0.0
 11
167.658
 21
228.48075
 31
0.0
  0
LINE
  5
328
330
20
100
AcDbEntity
  8
0
  6
LTYPE1
 62
     1
100
AcDbLine
 10
164.158
 20
231.98075
 30
0.0
 11
171.158
 21
231.98075
 31
0.0
  0
LINE
  5
329
330
20
100
AcDbEntity
  8
0
  6
LTYPE1
 62
     1
100
AcDbLine
 10
173.358
 20
263.98075
 30
0.0
 11
97.95799999999999
 21
263.98075
 31
0.0
  0
LINE
  5
32A
330
20
100
AcDbEntity
  8
0
  6
LTYPE1
 62
     1
100
AcDbLine
 10
135.658
 20
301.38075
 30
0.0
 11
135.658
 21
226.58075
 31
0.0
  0
CIRCLE
  5
32B
330
20
100
AcDbEntity
  8
0
  6
LTYPE1
 62
     1
100
AcDbCircle
 10
531.0579999999999
 20
156.18075
 30
0.0
 40
1.5
  0
LINE
  5
32C
330
20
100
AcDbEntity
  8
0
  6
LTYPE1
 62
     1
100
AcDbLine
 10
531.0579999999999
 20
152.68075
 30
0.0
 11
531.0579999999999
 21
159.68075
 31
0.0
  0
LINE
  5
32D
330
20
100
AcDbEntity
  8
0
  6
LTYPE1
 62
     1
100
AcDbLine
 10
527.5579999999999
 20
156.18075
 30
0.0
 11
534.5579999999999
 21
156.18075
 31
0.0
  0
CIRCLE
  5
32E
330
20
100
AcDbEntity
  8
0
  6
LTYPE1
 62
     1
100
AcDbCircle
 10
467.058
 20
156.18075
 30
0.0
 40
1.5
  0
LINE
  5
32F
330
20
100
AcDbEntity
  8
0
  6
LTYPE1
 62
     1
100
AcDbLine
 10
467.058
 20
152.68075
 30
0.0
 11
467.058
 21
159.68075
 31
0.0
  0
LINE
  5
330
330
20
100
AcDbEntity
  8
0
  6
LTYPE1
 62
     1
100
AcDbLine
 10
470.558
 20
156.18075
 30
0.0
 11
463.558
 21
156.18075
 31
0.0
  0
CIRCLE
  5
331
330
20
100
AcDbEntity
  8
0
  6
LTYPE1
 62
     1
100
AcDbCircle
 10
531.0579999999999
 20
92.18075
 30
0.0
 40
1.5
  0
LINE
  5
332
330
20
100
AcDbEntity
  8
0
  6
LTYPE1
 62
     1
100
AcDbLine
 10
531.0579999999999
 20
95.68075
 30
0.0
 11
531.0579999999999
 21
88.68075000000001
 31
0.0
  0
LINE
  5
333
330
20
100
AcDbEntity
  8
0
  6
LTYPE1
 62
     1
100
AcDbLine
 10
527.5579999999999
 20
92.18075
 30
0.0
 11
534.5579999999999
 21
92.18075
 31
0.0
  0
CIRCLE
  5
334
330
20
100
AcDbEntity
  8
0
  6
LTYPE1
 62
     1
100
AcDbCircle
 10
467.058
 20
92.18075
 30
0.0
 40
1.5
  0
LINE
  5
335
330
20
100
AcDbEntity
  8
0
  6
LTYPE1
 62
     1
100
AcDbLine
 10
467.058
 20
95.68075
 30
0.0
 11
467.058
 21
88.68075000000001
 31
0.0
  0
LINE
  5
336
330
20
100
AcDbEntity
  8
0
  6
LTYPE1
 62
     1
100
AcDbLine
 10
470.558
 20
92.18075
 30
0.0
 11
463.558
 21
92.18075
 31
0.0
  0
LINE
  5
337
330
20
100
AcDbEntity
  8
0
  6
Continuous
 62
     4
100
AcDbLine
 10
142.058
 20
99.31891311500001
 30
0.0
 11
142.058
 21
100.818498289
 31
0.0
  0
LINE
  5
338
330
20
100
AcDbEntity
  8
0
  6
Continuous
 62
     4
100
AcDbLine
 10
142.389155674
 20
99.30155798200001
 30
0.0
 11
142.545905008
 21
100.792928271
 31
0.0
  0
LINE
  5
339
330
20
100
AcDbEntity
  8
0
  6
Continuous
 62
     4
100
AcDbLine
 10
142.716683137
 20
99.24968272800001
 30
0.0
 11
143.028464426
 21
100.716498367
 31
0.0
  0
LINE
  5
33A
330
20
100
AcDbEntity
  8
0
  6
Continuous
 62
     4
100
AcDbLine
 10
143.03699393
 20
99.16385571000001
 30
0.0
 11
143.500391233
 21
100.590045961
 31
0.0
  0
LINE
  5
33B
330
20
100
AcDbEntity
  8
0
  6
Continuous
 62
     4
100
AcDbLine
 10
143.346578661
 20
99.04501726600001
 30
0.0
 11
143.9565149
 21
100.414956489
 31
0.0
  0
LINE
  5
33C
330
20
100
AcDbEntity
  8
0
  6
Continuous
 62
     4
100
AcDbLine
 10
143.642045454
 20
98.89446941500001
 30
0.0
 11
144.391838041
 21
100.193148271
 31
0.0
  0
LINE
  5
33D
330
20
100
AcDbEntity
  8
0
  6
Continuous
 62
     4
100
AcDbLine
 10
143.920157114
 20
98.713861592
 30
0.0
 11
144.8015911629999
 21
99.92705148200002
 31
0.0
  0
LINE
  5
33E
330
20
100
AcDbEntity
  8
0
  6
Continuous
 62
     4
100
AcDbLine
 10
144.17786659
 20
98.50517257200001
 30
0.0
 11
145.181284927
 21
99.61958153399999
 31
0.0
  0
LINE
  5
33F
330
20
100
AcDbEntity
  8
0
  6
Continuous
 62
     4
100
AcDbLine
 10
144.412350365
 20
98.270688798
 30
0.0
 11
145.526759327
 21
99.274107134
 31
0.0
  0
LINE
  5
340
330
20
100
AcDbEntity
  8
0
  6
Continuous
 62
     4
100
AcDbLine
 10
144.621039384
 20
98.012979321
 30
0.0
 11
145.834229274
 21
98.894413371
 31
0.0
  0
LINE
  5
341
330
20
100
AcDbEntity
  8
0
  6
Continuous
 62
     4
100
AcDbLine
 10
144.801647208
 20
97.73486766100001
 30
0.0
 11
146.100326063
 21
98.484660248
 31
0.0
  0
LINE
  5
342
330
20
100
AcDbEntity
  8
0
  6
Continuous
 62
     4
100
AcDbLine
 10
144.952195058
 20
97.439400868
 30
0.0
 11
146.322134282
 21
98.049337108
 31
0.0
  0
LINE
  5
343
330
20
100
AcDbEntity
  8
0
  6
Continuous
 62
     4
100
AcDbLine
 10
145.071033502
 20
97.129816138
 30
0.0
 11
146.497223753
 21
97.59321344100001
 31
0.0
  0
LINE
  5
344
330
20
100
AcDbEntity
  8
0
  6
Continuous
 62
     4
100
AcDbLine
 10
145.15686052
 20
96.809505345
 30
0.0
 11
146.62367616
 21
97.12128663400001
 31
0.0
  0
LINE
  5
345
330
20
100
AcDbEntity
  8
0
  6
Continuous
 62
     4
100
AcDbLine
 10
145.208735774
 20
96.481977882
 30
0.0
 11
146.700106063
 21
96.638727215
 31
0.0
  0
LINE
  5
346
330
20
100
AcDbEntity
  8
0
  6
Continuous
 62
     4
100
AcDbLine
 10
145.226090908
 20
96.15082220799999
 30
0.0
 11
146.725676081
 21
96.15082220799999
 31
0.0
  0
LINE
  5
347
330
20
100
AcDbEntity
  8
0
  6
Continuous
 62
     4
100
AcDbLine
 10
145.208735774
 20
95.81966653299998
 30
0.0
 11
146.700106063
 21
95.6629172
 31
0.0
  0
LINE
  5
348
330
20
100
AcDbEntity
  8
0
  6
Continuous
 62
     4
100
AcDbLine
 10
145.15686052
 20
95.49213907
 30
0.0
 11
146.62367616
 21
95.18035778099999
 31
0.0
  0
LINE
  5
349
330
20
100
AcDbEntity
  8
0
  6
Continuous
 62
     4
100
AcDbLine
 10
145.071033502
 20
95.17182827700001
 30
0.0
 11
146.497223753
 21
94.70843097399999
 31
0.0
  0
LINE
  5
34A
330
20
100
AcDbEntity
  8
0
  6
Continuous
 62
     4
100
AcDbLine
 10
144.952195058
 20
94.862243547
 30
0.0
 11
146.322134282
 21
94.252307307
 31
0.0
  0
LINE
  5
34B
330
20
100
AcDbEntity
  8
0
  6
Continuous
 62
     4
100
AcDbLine
 10
144.801647208
 20
94.56677675399999
 30
0.0
 11
146.100326063
 21
93.816984167
 31
0.0
  0
LINE
  5
34C
330
20
100
AcDbEntity
  8
0
  6
Continuous
 62
     4
100
AcDbLine
 10
144.621039384
 20
94.288665094
 30
0.0
 11
145.834229274
 21
93.407231044
 31
0.0
  0
LINE
  5
34D
330
20
100
AcDbEntity
  8
0
  6
Continuous
 62
     4
100
AcDbLine
 10
144.412350365
 20
94.030955617
 30
0.0
 11
145.526759327
 21
93.027537281
 31
0.0
  0
LINE
  5
34E
330
20
100
AcDbEntity
  8
0
  6
Continuous
 62
     4
100
AcDbLine
 10
144.17786659
 20
93.79647184299999
 30
0.0
 11
145.181284927
 21
92.68206288100001
 31
0.0
  0
LINE
  5
34F
330
20
100
AcDbEntity
  8
0
  6
Continuous
 62
     4
100
AcDbLine
 10
143.920157114
 20
93.58778282299999
 30
0.0
 11
144.8015911629999
 21
92.37459293399998
 31
0.0
  0
LINE
  5
350
330
20
100
AcDbEntity
  8
0
  6
Continuous
 62
     4
100
AcDbLine
 10
143.642045454
 20
93.407175
 30
0.0
 11
144.391838041
 21
92.108496145
 31
0.0
  0
LINE
  5
351
330
20
100
AcDbEntity
  8
0
  6
Continuous
 62
     4
100
AcDbLine
 10
143.346578661
 20
93.25662714899999
 30
0.0
 11
143.9565149
 21
91.88668792600001
 31
0.0
  0
LINE
  5
352
330
20
100
AcDbEntity
  8
0
  6
Continuous
 62
     4
100
AcDbLine
 10
143.03699393
 20
93.137788705
 30
0.0
 11
143.500391233
 21
91.711598454
 31
0.0
  0
LINE
  5
353
330
20
100
AcDbEntity
  8
0
  6
Continuous
 62
     4
100
AcDbLine
 10
142.716683137
 20
93.051961687
 30
0.0
 11
143.028464426
 21
91.585146048
 31
0.0
  0
LINE
  5
354
330
20
100
AcDbEntity
  8
0
  6
Continuous
 62
     4
100
AcDbLine
 10
142.389155674
 20
93.00008643299999
 30
0.0
 11
142.545905008
 21
91.50871614399999
 31
0.0
  0
LINE
  5
355
330
20
100
AcDbEntity
  8
0
  6
Continuous
 62
     4
100
AcDbLine
 10
142.058
 20
92.9827313
 30
0.0
 11
142.058
 21
91.48314612600001
 31
0.0
  0
LINE
  5
356
330
20
100
AcDbEntity
  8
0
  6
Continuous
 62
     4
100
AcDbLine
 10
141.726844326
 20
93.00008643299999
 30
0.0
 11
141.570094992
 21
91.50871614399999
 31
0.0
  0
LINE
  5
357
330
20
100
AcDbEntity
  8
0
  6
Continuous
 62
     4
100
AcDbLine
 10
141.399316863
 20
93.051961687
 30
0.0
 11
141.087535574
 21
91.585146048
 31
0.0
  0
LINE
  5
358
330
20
100
AcDbEntity
  8
0
  6
Continuous
 62
     4
100
AcDbLine
 10
141.07900607
 20
93.137788705
 30
0.0
 11
140.615608767
 21
91.711598454
 31
0.0
  0
LINE
  5
359
330
20
100
AcDbEntity
  8
0
  6
Continuous
 62
     4
100
AcDbLine
 10
140.769421339
 20
93.25662714899999
 30
0.0
 11
140.1594851
 21
91.88668792600001
 31
0.0
  0
LINE
  5
35A
330
20
100
AcDbEntity
  8
0
  6
Continuous
 62
     4
100
AcDbLine
 10
140.473954546
 20
93.407175
 30
0.0
 11
139.724161959
 21
92.108496145
 31
0.0
  0
LINE
  5
35B
330
20
100
AcDbEntity
  8
0
  6
Continuous
 62
     4
100
AcDbLine
 10
140.195842886
 20
93.58778282299999
 30
0.0
 11
139.314408837
 21
92.37459293399998
 31
0.0
  0
LINE
  5
35C
330
20
100
AcDbEntity
  8
0
  6
Continuous
 62
     4
100
AcDbLine
 10
139.93813341
 20
93.79647184299999
 30
0.0
 11
138.9347150729999
 21
92.68206288100001
 31
0.0
  0
LINE
  5
35D
330
20
100
AcDbEntity
  8
0
  6
Continuous
 62
     4
100
AcDbLine
 10
139.703649635
 20
94.030955617
 30
0.0
 11
138.589240673
 21
93.027537281
 31
0.0
  0
LINE
  5
35E
330
20
100
AcDbEntity
  8
0
  6
Continuous
 62
     4
100
AcDbLine
 10
139.494960616
 20
94.288665094
 30
0.0
 11
138.281770726
 21
93.407231044
 31
0.0
  0
LINE
  5
35F
330
20
100
AcDbEntity
  8
0
  6
Continuous
 62
     4
100
AcDbLine
 10
139.314352792
 20
94.56677675399999
 30
0.0
 11
138.015673937
 21
93.816984167
 31
0.0
  0
LINE
  5
360
330
20
100
AcDbEntity
  8
0
  6
Continuous
 62
     4
100
AcDbLine
 10
139.163804942
 20
94.862243547
 30
0.0
 11
137.793865718
 21
94.252307307
 31
0.0
  0
LINE
  5
361
330
20
100
AcDbEntity
  8
0
  6
Continuous
 62
     4
100
AcDbLine
 10
139.044966498
 20
95.17182827700001
 30
0.0
 11
137.618776247
 21
94.70843097399999
 31
0.0
  0
LINE
  5
362
330
20
100
AcDbEntity
  8
0
  6
Continuous
 62
     4
100
AcDbLine
 10
138.95913948
 20
95.49213907
 30
0.0
 11
137.49232384
 21
95.18035778099999
 31
0.0
  0
LINE
  5
363
330
20
100
AcDbEntity
  8
0
  6
Continuous
 62
     4
100
AcDbLine
 10
138.907264226
 20
95.81966653299998
 30
0.0
 11
137.415893937
 21
95.6629172
 31
0.0
  0
LINE
  5
364
330
20
100
AcDbEntity
  8
0
  6
Continuous
 62
     4
100
AcDbLine
 10
138.889909092
 20
96.15082220799999
 30
0.0
 11
137.390323919
 21
96.15082220799999
 31
0.0
  0
LINE
  5
365
330
20
100
AcDbEntity
  8
0
  6
Continuous
 62
     4
100
AcDbLine
 10
138.907264226
 20
96.481977882
 30
0.0
 11
137.415893937
 21
96.638727215
 31
0.0
  0
LINE
  5
366
330
20
100
AcDbEntity
  8
0
  6
Continuous
 62
     4
100
AcDbLine
 10
138.95913948
 20
96.809505345
 30
0.0
 11
137.49232384
 21
97.12128663400001
 31
0.0
  0
LINE
  5
367
330
20
100
AcDbEntity
  8
0
  6
Continuous
 62
     4
100
AcDbLine
 10
139.044966498
 20
97.129816138
 30
0.0
 11
137.618776247
 21
97.59321344100001
 31
0.0
  0
LINE
  5
368
330
20
100
AcDbEntity
  8
0
  6
Continuous
 62
     4
100
AcDbLine
 10
139.163804942
 20
97.439400868
 30
0.0
 11
137.793865718
 21
98.049337108
 31
0.0
  0
LINE
  5
369
330
20
100
AcDbEntity
  8
0
  6
Continuous
 62
     4
100
AcDbLine
 10
139.314352792
 20
97.73486766100001
 30
0.0
 11
138.015673937
 21
98.484660248
 31
0.0
  0
LINE
  5
36A
330
20
100
AcDbEntity
  8
0
  6
Continuous
 62
     4
100
AcDbLine
 10
139.494960616
 20
98.012979321
 30
0.0
 11
138.281770726
 21
98.894413371
 31
0.0
  0
LINE
  5
36B
330
20
100
AcDbEntity
  8
0
  6
Continuous
 62
     4
100
AcDbLine
 10
139.703649635
 20
98.270688798
 30
0.0
 11
138.589240673
 21
99.274107134
 31
0.0
  0
LINE
  5
36C
330
20
100
AcDbEntity
  8
0
  6
Continuous
 62
     4
100
AcDbLine
 10
139.93813341
 20
98.50517257200001
 30
0.0
 11
138.9347150729999
 21
99.61958153399999
 31
0.0
  0
LINE
  5
36D
330
20
100
AcDbEntity
  8
0
  6
Continuous
 62
     4
100
AcDbLine
 10
140.195842886
 20
98.713861592
 30
0.0
 11
139.314408837
 21
99.92705148200002
 31
0.0
  0
LINE
  5
36E
330
20
100
AcDbEntity
  8
0
  6
Continuous
 62
     4
100
AcDbLine
 10
140.473954546
 20
98.89446941500001
 30
0.0
 11
139.724161959
 21
100.193148271
 31
0.0
  0
LINE
  5
36F
330
20
100
AcDbEntity
  8
0
  6
Continuous
 62
     4
100
AcDbLine
 10
140.769421339
 20
99.04501726600001
 30
0.0
 11
140.1594851
 21
100.414956489
 31
0.0
  0
LINE
  5
370
330
20
100
AcDbEntity
  8
0
  6
Continuous
 62
     4
100
AcDbLine
 10
141.07900607
 20
99.16385571000001
 30
0.0
 11
140.615608767
 21
100.590045961
 31
0.0
  0
LINE
  5
371
330
20
100
AcDbEntity
  8
0
  6
Continuous
 62
     4
100
AcDbLine
 10
141.399316863
 20
99.24968272800001
 30
0.0
 11
141.087535574
 21
100.716498367
 31
0.0
  0
LINE
  5
372
330
20
100
AcDbEntity
  8
0
  6
Continuous
 62
     4
100
AcDbLine
 10
141.726844326
 20
99.30155798200001
 30
0.0
 11
141.570094992
 21
100.792928271
 31
0.0
  0
LINE
  5
373
330
20
100
AcDbEntity
  8
0
  6
Continuous
 62
     4
100
AcDbLine
 10
121.858
 20
99.31891311500001
 30
0.0
 11
121.858
 21
100.818498289
 31
0.0
  0
LINE
  5
374
330
20
100
AcDbEntity
  8
0
  6
Continuous
 62
     4
100
AcDbLine
 10
121.526844326
 20
99.30155798200001
 30
0.0
 11
121.370094992
 21
100.792928271
 31
0.0
  0
LINE
  5
375
330
20
100
AcDbEntity
  8
0
  6
Continuous
 62
     4
100
AcDbLine
 10
121.199316863
 20
99.24968272800001
 30
0.0
 11
120.887535574
 21
100.716498367
 31
0.0
  0
LINE
  5
376
330
20
100
AcDbEntity
  8
0
  6
Continuous
 62
     4
100
AcDbLine
 10
120.87900607
 20
99.16385571000001
 30
0.0
 11
120.415608767
 21
100.590045961
 31
0.0
  0
LINE
  5
377
330
20
100
AcDbEntity
  8
0
  6
Continuous
 62
     4
100
AcDbLine
 10
120.569421339
 20
99.04501726600001
 30
0.0
 11
119.9594851
 21
100.414956489
 31
0.0
  0
LINE
  5
378
330
20
100
AcDbEntity
  8
0
  6
Continuous
 62
     4
100
AcDbLine
 10
120.273954546
 20
98.89446941500001
 30
0.0
 11
119.524161959
 21
100.193148271
 31
0.0
  0
LINE
  5
379
330
20
100
AcDbEntity
  8
0
  6
Continuous
 62
     4
100
AcDbLine
 10
119.995842886
 20
98.713861592
 30
0.0
 11
119.114408837
 21
99.92705148200002
 31
0.0
  0
LINE
  5
37A
330
20
100
AcDbEntity
  8
0
  6
Continuous
 62
     4
100
AcDbLine
 10
119.73813341
 20
98.50517257200001
 30
0.0
 11
118.734715073
 21
99.61958153399999
 31
0.0
  0
LINE
  5
37B
330
20
100
AcDbEntity
  8
0
  6
Continuous
 62
     4
100
AcDbLine
 10
119.503649635
 20
98.270688798
 30
0.0
 11
118.389240673
 21
99.274107134
 31
0.0
  0
LINE
  5
37C
330
20
100
AcDbEntity
  8
0
  6
Continuous
 62
     4
100
AcDbLine
 10
119.294960616
 20
98.012979321
 30
0.0
 11
118.081770726
 21
98.894413371
 31
0.0
  0
LINE
  5
37D
330
20
100
AcDbEntity
  8
0
  6
Continuous
 62
     4
100
AcDbLine
 10
119.114352792
 20
97.73486766100001
 30
0.0
 11
117.815673937
 21
98.484660248
 31
0.0
  0
LINE
  5
37E
330
20
100
AcDbEntity
  8
0
  6
Continuous
 62
     4
100
AcDbLine
 10
118.963804942
 20
97.439400868
 30
0.0
 11
117.593865718
 21
98.049337108
 31
0.0
  0
LINE
  5
37F
330
20
100
AcDbEntity
  8
0
  6
Continuous
 62
     4
100
AcDbLine
 10
118.844966498
 20
97.129816138
 30
0.0
 11
117.418776247
 21
97.59321344100001
 31
0.0
  0
LINE
  5
380
330
20
100
AcDbEntity
  8
0
  6
Continuous
 62
     4
100
AcDbLine
 10
118.75913948
 20
96.809505345
 30
0.0
 11
117.29232384
 21
97.12128663400001
 31
0.0
  0
LINE
  5
381
330
20
100
AcDbEntity
  8
0
  6
Continuous
 62
     4
100
AcDbLine
 10
118.707264226
 20
96.481977882
 30
0.0
 11
117.215893937
 21
96.638727215
 31
0.0
  0
LINE
  5
382
330
20
100
AcDbEntity
  8
0
  6
Continuous
 62
     4
100
AcDbLine
 10
118.689909092
 20
96.15082220799999
 30
0.0
 11
117.190323919
 21
96.15082220799999
 31
0.0
  0
LINE
  5
383
330
20
100
AcDbEntity
  8
0
  6
Continuous
 62
     4
100
AcDbLine
 10
118.707264226
 20
95.81966653299998
 30
0.0
 11
117.215893937
 21
95.6629172
 31
0.0
  0
LINE
  5
384
330
20
100
AcDbEntity
  8
0
  6
Continuous
 62
     4
100
AcDbLine
 10
118.75913948
 20
95.49213907
 30
0.0
 11
117.29232384
 21
95.18035778099999
 31
0.0
  0
LINE
  5
385
330
20
100
AcDbEntity
  8
0
  6
Continuous
 62
     4
100
AcDbLine
 10
118.844966498
 20
95.17182827700001
 30
0.0
 11
117.418776247
 21
94.70843097399999
 31
0.0
  0
LINE
  5
386
330
20
100
AcDbEntity
  8
0
  6
Continuous
 62
     4
100
AcDbLine
 10
118.963804942
 20
94.862243547
 30
0.0
 11
117.593865718
 21
94.252307307
 31
0.0
  0
LINE
  5
387
330
20
100
AcDbEntity
  8
0
  6
Continuous
 62
     4
100
AcDbLine
 10
119.114352792
 20
94.56677675399999
 30
0.0
 11
117.815673937
 21
93.816984167
 31
0.0
  0
LINE
  5
388
330
20
100
AcDbEntity
  8
0
  6
Continuous
 62
     4
100
AcDbLine
 10
119.294960616
 20
94.288665094
 30
0.0
 11
118.081770726
 21
93.407231044
 31
0.0
  0
LINE
  5
389
330
20
100
AcDbEntity
  8
0
  6
Continuous
 62
     4
100
AcDbLine
 10
119.503649635
 20
94.030955617
 30
0.0
 11
118.389240673
 21
93.027537281
 31
0.0
  0
LINE
  5
38A
330
20
100
AcDbEntity
  8
0
  6
Continuous
 62
     4
100
AcDbLine
 10
119.73813341
 20
93.79647184299999
 30
0.0
 11
118.734715073
 21
92.68206288100001
 31
0.0
  0
LINE
  5
38B
330
20
100
AcDbEntity
  8
0
  6
Continuous
 62
     4
100
AcDbLine
 10
119.995842886
 20
93.58778282299999
 30
0.0
 11
119.114408837
 21
92.37459293399998
 31
0.0
  0
LINE
  5
38C
330
20
100
AcDbEntity
  8
0
  6
Continuous
 62
     4
100
AcDbLine
 10
120.273954546
 20
93.407175
 30
0.0
 11
119.524161959
 21
92.108496145
 31
0.0
  0
LINE
  5
38D
330
20
100
AcDbEntity
  8
0
  6
Continuous
 62
     4
100
AcDbLine
 10
120.569421339
 20
93.25662714899999
 30
0.0
 11
119.9594851
 21
91.88668792600001
 31
0.0
  0
LINE
  5
38E
330
20
100
AcDbEntity
  8
0
  6
Continuous
 62
     4
100
AcDbLine
 10
120.87900607
 20
93.137788705
 30
0.0
 11
120.415608767
 21
91.711598454
 31
0.0
  0
LINE
  5
38F
330
20
100
AcDbEntity
  8
0
  6
Continuous
 62
     4
100
AcDbLine
 10
121.199316863
 20
93.051961687
 30
0.0
 11
120.887535574
 21
91.585146048
 31
0.0
  0
LINE
  5
390
330
20
100
AcDbEntity
  8
0
  6
Continuous
 62
     4
100
AcDbLine
 10
121.526844326
 20
93.00008643299999
 30
0.0
 11
121.370094992
 21
91.50871614399999
 31
0.0
  0
LINE
  5
391
330
20
100
AcDbEntity
  8
0
  6
Continuous
 62
     4
100
AcDbLine
 10
121.858
 20
92.9827313
 30
0.0
 11
121.858
 21
91.48314612600001
 31
0.0
  0
LINE
  5
392
330
20
100
AcDbEntity
  8
0
  6
Continuous
 62
     4
100
AcDbLine
 10
122.189155674
 20
93.00008643299999
 30
0.0
 11
122.345905008
 21
91.50871614399999
 31
0.0
  0
LINE
  5
393
330
20
100
AcDbEntity
  8
0
  6
Continuous
 62
     4
100
AcDbLine
 10
122.516683137
 20
93.051961687
 30
0.0
 11
122.828464426
 21
91.585146048
 31
0.0
  0
LINE
  5
394
330
20
100
AcDbEntity
  8
0
  6
Continuous
 62
     4
100
AcDbLine
 10
122.83699393
 20
93.137788705
 30
0.0
 11
123.300391233
 21
91.711598454
 31
0.0
  0
LINE
  5
395
330
20
100
AcDbEntity
  8
0
  6
Continuous
 62
     4
100
AcDbLine
 10
123.146578661
 20
93.25662714899999
 30
0.0
 11
123.7565149
 21
91.88668792600001
 31
0.0
  0
LINE
  5
396
330
20
100
AcDbEntity
  8
0
  6
Continuous
 62
     4
100
AcDbLine
 10
123.442045454
 20
93.407175
 30
0.0
 11
124.191838041
 21
92.108496145
 31
0.0
  0
LINE
  5
397
330
20
100
AcDbEntity
  8
0
  6
Continuous
 62
     4
100
AcDbLine
 10
123.720157114
 20
93.58778282299999
 30
0.0
 11
124.601591163
 21
92.37459293399998
 31
0.0
  0
LINE
  5
398
330
20
100
AcDbEntity
  8
0
  6
Continuous
 62
     4
100
AcDbLine
 10
123.97786659
 20
93.79647184299999
 30
0.0
 11
124.981284927
 21
92.68206288100001
 31
0.0
  0
LINE
  5
399
330
20
100
AcDbEntity
  8
0
  6
Continuous
 62
     4
100
AcDbLine
 10
124.212350365
 20
94.030955617
 30
0.0
 11
125.326759327
 21
93.027537281
 31
0.0
  0
LINE
  5
39A
330
20
100
AcDbEntity
  8
0
  6
Continuous
 62
     4
100
AcDbLine
 10
124.421039384
 20
94.288665094
 30
0.0
 11
125.634229274
 21
93.407231044
 31
0.0
  0
LINE
  5
39B
330
20
100
AcDbEntity
  8
0
  6
Continuous
 62
     4
100
AcDbLine
 10
124.601647208
 20
94.56677675399999
 30
0.0
 11
125.900326063
 21
93.816984167
 31
0.0
  0
LINE
  5
39C
330
20
100
AcDbEntity
  8
0
  6
Continuous
 62
     4
100
AcDbLine
 10
124.752195058
 20
94.862243547
 30
0.0
 11
126.122134282
 21
94.252307307
 31
0.0
  0
LINE
  5
39D
330
20
100
AcDbEntity
  8
0
  6
Continuous
 62
     4
100
AcDbLine
 10
124.871033502
 20
95.17182827700001
 30
0.0
 11
126.297223753
 21
94.70843097399999
 31
0.0
  0
LINE
  5
39E
330
20
100
AcDbEntity
  8
0
  6
Continuous
 62
     4
100
AcDbLine
 10
124.95686052
 20
95.49213907
 30
0.0
 11
126.42367616
 21
95.18035778099999
 31
0.0
  0
LINE
  5
39F
330
20
100
AcDbEntity
  8
0
  6
Continuous
 62
     4
100
AcDbLine
 10
125.008735774
 20
95.81966653299998
 30
0.0
 11
126.500106063
 21
95.6629172
 31
0.0
  0
LINE
  5
3A0
330
20
100
AcDbEntity
  8
0
  6
Continuous
 62
     4
100
AcDbLine
 10
125.026090908
 20
96.15082220799999
 30
0.0
 11
126.525676081
 21
96.15082220799999
 31
0.0
  0
LINE
  5
3A1
330
20
100
AcDbEntity
  8
0
  6
Continuous
 62
     4
100
AcDbLine
 10
125.008735774
 20
96.481977882
 30
0.0
 11
126.500106063
 21
96.638727215
 31
0.0
  0
LINE
  5
3A2
330
20
100
AcDbEntity
  8
0
  6
Continuous
 62
     4
100
AcDbLine
 10
124.95686052
 20
96.809505345
 30
0.0
 11
126.42367616
 21
97.12128663400001
 31
0.0
  0
LINE
  5
3A3
330
20
100
AcDbEntity
  8
0
  6
Continuous
 62
     4
100
AcDbLine
 10
124.871033502
 20
97.129816138
 30
0.0
 11
126.297223753
 21
97.59321344100001
 31
0.0
  0
LINE
  5
3A4
330
20
100
AcDbEntity
  8
0
  6
Continuous
 62
     4
100
AcDbLine
 10
124.752195058
 20
97.439400868
 30
0.0
 11
126.122134282
 21
98.049337108
 31
0.0
  0
LINE
  5
3A5
330
20
100
AcDbEntity
  8
0
  6
Continuous
 62
     4
100
AcDbLine
 10
124.601647208
 20
97.73486766100001
 30
0.0
 11
125.900326063
 21
98.484660248
 31
0.0
  0
LINE
  5
3A6
330
20
100
AcDbEntity
  8
0
  6
Continuous
 62
     4
100
AcDbLine
 10
124.421039384
 20
98.012979321
 30
0.0
 11
125.634229274
 21
98.894413371
 31
0.0
  0
LINE
  5
3A7
330
20
100
AcDbEntity
  8
0
  6
Continuous
 62
     4
100
AcDbLine
 10
124.212350365
 20
98.270688798
 30
0.0
 11
125.326759327
 21
99.274107134
 31
0.0
  0
LINE
  5
3A8
330
20
100
AcDbEntity
  8
0
  6
Continuous
 62
     4
100
AcDbLine
 10
123.97786659
 20
98.50517257200001
 30
0.0
 11
124.981284927
 21
99.61958153399999
 31
0.0
  0
LINE
  5
3A9
330
20
100
AcDbEntity
  8
0
  6
Continuous
 62
     4
100
AcDbLine
 10
123.720157114
 20
98.713861592
 30
0.0
 11
124.601591163
 21
99.92705148200002
 31
0.0
  0
LINE
  5
3AA
330
20
100
AcDbEntity
  8
0
  6
Continuous
 62
     4
100
AcDbLine
 10
123.442045454
 20
98.89446941500001
 30
0.0
 11
124.191838041
 21
100.193148271
 31
0.0
  0
LINE
  5
3AB
330
20
100
AcDbEntity
  8
0
  6
Continuous
 62
     4
100
AcDbLine
 10
123.146578661
 20
99.04501726600001
 30
0.0
 11
123.7565149
 21
100.414956489
 31
0.0
  0
LINE
  5
3AC
330
20
100
AcDbEntity
  8
0
  6
Continuous
 62
     4
100
AcDbLine
 10
122.83699393
 20
99.16385571000001
 30
0.0
 11
123.300391233
 21
100.590045961
 31
0.0
  0
LINE
  5
3AD
330
20
100
AcDbEntity
  8
0
  6
Continuous
 62
     4
100
AcDbLine
 10
122.516683137
 20
99.24968272800001
 30
0.0
 11
122.828464426
 21
100.716498367
 31
0.0
  0
LINE
  5
3AE
330
20
100
AcDbEntity
  8
0
  6
Continuous
 62
     4
100
AcDbLine
 10
122.189155674
 20
99.30155798200001
 30
0.0
 11
122.345905008
 21
100.792928271
 31
0.0
  0
LINE
  5
3AF
330
20
100
AcDbEntity
  8
0
  6
Continuous
 62
     4
100
AcDbLine
 10
103.129505032
 20
110.615089987
 30
0.0
 11
99.53929551200001
 21
108.925665625
 31
0.0
  0
LINE
  5
3B0
330
20
100
AcDbEntity
  8
0
  6
Continuous
 62
     4
100
AcDbLine
 10
102.095465448
 20
113.074972951
 30
0.0
 11
98.376479911
 21
111.691894628
 31
0.0
  0
LINE
  5
3B1
330
20
100
AcDbEntity
  8
0
  6
Continuous
 62
     4
100
AcDbLine
 10
101.270890088
 20
115.612754962
 30
0.0
 11
97.44921454500001
 21
114.545723978
 31
0.0
  0
LINE
  5
3B2
330
20
100
AcDbEntity
  8
0
  6
Continuous
 62
     4
100
AcDbLine
 10
100.661562755
 20
118.210635302
 30
0.0
 11
96.76400351499999
 21
117.467136114
 31
0.0
  0
LINE
  5
3B3
330
20
100
AcDbEntity
  8
0
  6
Continuous
 62
     4
100
AcDbLine
 10
100.104208356
 20
123.513508183
 30
0.0
 11
96.137237963
 21
123.430411999
 31
0.0
  0
LINE
  5
3B4
330
20
100
AcDbEntity
  8
0
  6
Continuous
 62
     4
100
AcDbLine
 10
100.160090731
 20
126.181304881
 30
0.0
 11
96.20007975200001
 21
126.430447654
 31
0.0
  0
LINE
  5
3B5
330
20
100
AcDbEntity
  8
0
  6
Continuous
 62
     4
100
AcDbLine
 10
100.439012592
 20
128.835069124
 30
0.0
 11
96.513737659
 21
129.414703296
 31
0.0
  0
LINE
  5
3B6
330
20
100
AcDbEntity
  8
0
  6
Continuous
 62
     4
100
AcDbLine
 10
100.939017504
 20
131.456186662
 30
0.0
 11
97.07601159999999
 21
132.362246516
 31
0.0
  0
LINE
  5
3B7
330
20
100
AcDbEntity
  8
0
  6
Continuous
 62
     4
100
AcDbLine
 10
102.586721638
 20
136.527298552
 30
0.0
 11
98.928915593
 21
138.064898631
 31
0.0
  0
LINE
  5
3B8
330
20
100
AcDbEntity
  8
0
  6
Continuous
 62
     4
100
AcDbLine
 10
103.722863401
 20
138.941722697
 30
0.0
 11
100.206548854
 21
140.780007518
 31
0.0
  0
LINE
  5
3B9
330
20
100
AcDbEntity
  8
0
  6
Continuous
 62
     4
100
AcDbLine
 10
105.05705436
 20
141.252609225
 30
0.0
 11
101.706895733
 21
143.37868454
 31
0.0
  0
LINE
  5
3BA
330
20
100
AcDbEntity
  8
0
  6
Continuous
 62
     4
100
AcDbLine
 10
106.579936124
 20
143.443748927
 30
0.0
 11
103.419432372
 21
145.842701845
 31
0.0
  0
LINE
  5
3BB
330
20
100
AcDbEntity
  8
0
  6
Continuous
 62
     4
100
AcDbLine
 10
110.147795779
 20
147.406258511
 30
0.0
 11
107.431621976
 21
150.298689831
 31
0.0
  0
LINE
  5
3BC
330
20
100
AcDbEntity
  8
0
  6
Continuous
 62
     4
100
AcDbLine
 10
112.167747698
 20
149.149834235
 30
0.0
 11
109.703132313
 21
152.259404958
 31
0.0
  0
LINE
  5
3BD
330
20
100
AcDbEntity
  8
0
  6
Continuous
 62
     4
100
AcDbLine
 10
114.326514017
 20
150.718269774
 30
0.0
 11
112.130744557
 21
154.023168494
 31
0.0
  0
LINE
  5
3BE
330
20
100
AcDbEntity
  8
0
  6
Continuous
 62
     4
100
AcDbLine
 10
116.608952542
 20
152.100563679
 30
0.0
 11
114.697430752
 21
155.577608907
 31
0.0
  0
LINE
  5
3BF
330
20
100
AcDbEntity
  8
0
  6
Continuous
 62
     4
100
AcDbLine
 10
121.480052369
 20
154.269317051
 30
0.0
 11
120.175161934
 21
158.01645196
 31
0.0
  0
LINE
  5
3C0
330
20
100
AcDbEntity
  8
0
  6
Continuous
 62
     4
100
AcDbLine
 10
124.034546406
 20
155.040564272
 30
0.0
 11
123.047784573
 21
158.883747868
 31
0.0
  0
LINE
  5
3C1
330
20
100
AcDbEntity
  8
0
  6
Continuous
 62
     4
100
AcDbLine
 10
126.644617777
 20
155.595352068
 30
0.0
 11
125.982905972
 21
159.507627181
 31
0.0
  0
LINE
  5
3C2
330
20
100
AcDbEntity
  8
0
  6
Continuous
 62
     4
100
AcDbLine
 10
129.291958706
 20
155.929789002
 30
0.0
 11
128.959938362
 21
159.883713832
 31
0.0
  0
LINE
  5
3C3
330
20
100
AcDbEntity
  8
0
  6
Continuous
 62
     4
100
AcDbLine
 10
134.624041294
 20
155.929789002
 30
0.0
 11
134.956061638
 21
159.883713832
 31
0.0
  0
LINE
  5
3C4
330
20
100
AcDbEntity
  8
0
  6
Continuous
 62
     4
100
AcDbLine
 10
137.271382223
 20
155.595352068
 30
0.0
 11
137.933094028
 21
159.507627181
 31
0.0
  0
LINE
  5
3C5
330
20
100
AcDbEntity
  8
0
  6
Continuous
 62
     4
100
AcDbLine
 10
139.881453594
 20
155.040564272
 30
0.0
 11
140.868215427
 21
158.883747868
 31
0.0
  0
LINE
  5
3C6
330
20
100
AcDbEntity
  8
0
  6
Continuous
 62
     4
100
AcDbLine
 10
142.435947631
 20
154.269317051
 30
0.0
 11
143.740838066
 21
158.01645196
 31
0.0
  0
LINE
  5
3C7
330
20
100
AcDbEntity
  8
0
  6
Continuous
 62
     4
100
AcDbLine
 10
147.307047458
 20
152.100563679
 30
0.0
 11
149.218569248
 21
155.577608907
 31
0.0
  0
LINE
  5
3C8
330
20
100
AcDbEntity
  8
0
  6
Continuous
 62
     4
100
AcDbLine
 10
149.589485983
 20
150.718269774
 30
0.0
 11
151.785255443
 21
154.023168494
 31
0.0
  0
LINE
  5
3C9
330
20
100
AcDbEntity
  8
0
  6
Continuous
 62
     4
100
AcDbLine
 10
151.748252302
 20
149.149834235
 30
0.0
 11
154.212867687
 21
152.259404958
 31
0.0
  0
LINE
  5
3CA
330
20
100
AcDbEntity
  8
0
  6
Continuous
 62
     4
100
AcDbLine
 10
153.768204221
 20
147.406258511
 30
0.0
 11
156.484378024
 21
150.298689831
 31
0.0
  0
LINE
  5
3CB
330
20
100
AcDbEntity
  8
0
  6
Continuous
 62
     4
100
AcDbLine
 10
157.336063876
 20
143.443748927
 30
0.0
 11
160.4965676279999
 21
145.842701845
 31
0.0
  0
LINE
  5
3CC
330
20
100
AcDbEntity
  8
0
  6
Continuous
 62
     4
100
AcDbLine
 10
158.85894564
 20
141.252609225
 30
0.0
 11
162.209104267
 21
143.37868454
 31
0.0
  0
LINE
  5
3CD
330
20
100
AcDbEntity
  8
0
  6
Continuous
 62
     4
100
AcDbLine
 10
160.193136599
 20
138.941722697
 30
0.0
 11
163.709451146
 21
140.780007518
 31
0.0
  0
LINE
  5
3CE
330
20
100
AcDbEntity
  8
0
  6
Continuous
 62
     4
100
AcDbLine
 10
161.329278362
 20
136.527298552
 30
0.0
 11
164.987084407
 21
138.064898631
 31
0.0
  0
LINE
  5
3CF
330
20
100
AcDbEntity
  8
0
  6
Continuous
 62
     4
100
AcDbLine
 10
162.976982496
 20
131.456186662
 30
0.0
 11
166.8399884
 21
132.362246516
 31
0.0
  0
LINE
  5
3D0
330
20
100
AcDbEntity
  8
0
  6
Continuous
 62
     4
100
AcDbLine
 10
163.476987408
 20
128.835069124
 30
0.0
 11
167.402262341
 21
129.414703296
 31
0.0
  0
LINE
  5
3D1
330
20
100
AcDbEntity
  8
0
  6
Continuous
 62
     4
100
AcDbLine
 10
163.755909269
 20
126.181304881
 30
0.0
 11
167.715920248
 21
126.430447654
 31
0.0
  0
LINE
  5
3D2
330
20
100
AcDbEntity
  8
0
  6
Continuous
 62
     4
100
AcDbLine
 10
163.811791644
 20
123.513508183
 30
0.0
 11
167.778762037
 21
123.430411999
 31
0.0
  0
LINE
  5
3D3
330
20
100
AcDbEntity
  8
0
  6
Continuous
 62
     4
100
AcDbLine
 10
163.254437245
 20
118.210635302
 30
0.0
 11
167.151996485
 21
117.467136114
 31
0.0
  0
LINE
  5
3D4
330
20
100
AcDbEntity
  8
0
  6
Continuous
 62
     4
100
AcDbLine
 10
162.645109912
 20
115.612754962
 30
0.0
 11
166.466785455
 21
114.545723978
 31
0.0
  0
LINE
  5
3D5
330
20
100
AcDbEntity
  8
0
  6
Continuous
 62
     4
100
AcDbLine
 10
161.820534552
 20
113.074972951
 30
0.0
 11
165.539520089
 21
111.691894628
 31
0.0
  0
LINE
  5
3D6
330
20
100
AcDbEntity
  8
0
  6
Continuous
 62
     4
100
AcDbLine
 10
160.786494968
 20
110.615089987
 30
0.0
 11
164.376704488
 21
108.925665625
 31
0.0
  0
TEXT
  5
3D7
330
20
100
AcDbEntity
  8
0
  6
Continuous
 62
     4
100
AcDbText
 10
104.6438
 20
130.197
 30
0.0
 40
4.9
  1
２０
 41
0.7653061220000001
  7
KANJI0
100
AcDbText
  0
TEXT
  5
3D8
330
20
100
AcDbEntity
  8
0
  6
Continuous
 62
     4
100
AcDbText
 10
117.3438
 20
145.497
 30
0.0
 40
4.9
  1
４０
 41
0.7653061220000001
  7
KANJI0
100
AcDbText
  0
TEXT
  5
3D9
330
20
100
AcDbEntity
  8
0
  6
Continuous
 62
     4
100
AcDbText
 10
138.9438
 20
144.597
 30
0.0
 40
4.9
  1
６０
 41
0.7653061220000001
  7
KANJI0
100
AcDbText
  0
TEXT
  5
3DA
330
20
100
AcDbEntity
  8
0
  6
Continuous
 62
     4
100
AcDbText
 10
152.8438
 20
129.397
 30
0.0
 40
4.9
  1
８０
 41
0.7653061220000001
  7
KANJI0
100
AcDbText
  0
TEXT
  5
3DB
330
20
100
AcDbEntity
  8
0
  6
Continuous
 62
     4
100
AcDbText
 10
148.4438
 20
109.577
 30
0.0
 40
4.41
  1
１００
 41
0.7653061220000001
  7
KANJI1
100
AcDbText
  0
TEXT
  5
3DC
330
20
100
AcDbEntity
  8
0
  6
Continuous
 62
     4
100
AcDbText
 10
127.6438
 20
104.897
 30
0.0
 40
4.799999999999999
  1
Ｌ／ｈ
 41
0.8402777779999999
  7
KANJI2
100
AcDbText
  0
TEXT
  5
3DD
330
20
100
AcDbEntity
  8
0
  6
Continuous
 62
     4
100
AcDbText
 10
492.850602762
 20
139.036076302
 30
0.0
 40
5.5
  1
－
 50
22.5
  7
KANJI3
100
AcDbText
  0
TEXT
  5
3DE
330
20
100
AcDbEntity
  8
0
  6
Continuous
 62
     4
100
AcDbText
 10
484.1644053549999
 20
130.295759284
 30
0.0
 40
5.5
  1
＋
 50
67.5
  7
KANJI3
100
AcDbText
  0
TEXT
  5
3DF
330
20
100
AcDbEntity
  8
0
  6
Continuous
 62
     4
100
AcDbText
 10
504.919734323
 20
138.432512381
 30
0.0
 40
3.85
  1
±
 50
337.5
  7
KANJI4
100
AcDbText
  0
TEXT
  5
3E0
330
20
100
AcDbEntity
  8
0
  6
Continuous
 62
     4
100
AcDbText
 10
505.916935778
 20
134.71664104
 30
0.0
 40
2.5
  1
１００Ｖ
 50
315.0
 41
0.5200000000000001
  7
KANJI5
100
AcDbText
  0
TEXT
  5
3E1
330
20
100
AcDbEntity
  8
0
  6
Continuous
 62
     4
100
AcDbText
 10
509.4267413259999
 20
131.289843003
 30
0.0
 40
2.5
  1
２００Ｖ
 50
292.5
 41
0.5200000000000001
  7
KANJI5
100
AcDbText
  0
TEXT
  5
3E2
330
20
100
AcDbEntity
  8
0
  6
Continuous
 62
     4
100
AcDbText
 10
500.698
 20
118.56075
 30
0.3
 40
2.16
  1
ＬＯＷ
  7
KANJI6
100
AcDbText
  0
TEXT
  5
3E3
330
20
100
AcDbEntity
  8
0
  6
Continuous
 62
     4
100
AcDbText
 10
487.698
 20
118.40075
 30
0.0
 40
2.609999999999999
  1
ＨＩＧＨ
 41
0.8362068970000001
  7
KANJI7
100
AcDbText
  0
TEXT
  5
3E4
330
20
100
AcDbEntity
  8
0
  6
Continuous
 62
     4
100
AcDbText
 10
478.458
 20
175.28075
 30
7.9
 40
6.299999999999999
  1
背面端子
  7
KANJI8
100
AcDbText
  0
LINE
  5
3E5
330
20
100
AcDbEntity
  8
2
  6
Continuous
 62
     4
100
AcDbLine
 10
91.958
 20
85.18075000000001
 30
7.9
 11
91.958
 21
58.08075
 31
7.9
  0
LINE
  5
3E6
330
20
100
AcDbEntity
  8
2
  6
Continuous
 62
     4
100
AcDbLine
 10
91.958
 20
59.08075
 30
0.0
 11
94.372814566
 21
58.433702387
 31
0.0
  0
LINE
  5
3E7
330
20
100
AcDbEntity
  8
2
  6
Continuous
 62
     4
100
AcDbLine
 10
91.958
 20
59.08075
 30
0.0
 11
94.372814566
 21
59.72779761299999
 31
0.0
  0
LINE
  5
3E8
330
20
100
AcDbEntity
  8
2
  6
Continuous
 62
     4
100
AcDbLine
 10
91.958
 20
59.08075
 30
0.0
 11
171.958
 21
59.08075
 31
0.0
  0
LINE
  5
3E9
330
20
100
AcDbEntity
  8
2
  6
Continuous
 62
     4
100
AcDbLine
 10
171.958
 20
59.08075
 30
0.0
 11
169.543185434
 21
59.72779761299999
 31
0.0
  0
LINE
  5
3EA
330
20
100
AcDbEntity
  8
2
  6
Continuous
 62
     4
100
AcDbLine
 10
171.958
 20
59.08075
 30
0.0
 11
169.543185434
 21
58.433702387
 31
0.0
  0
LINE
  5
3EB
330
20
100
AcDbEntity
  8
2
  6
Continuous
 62
     4
100
AcDbLine
 10
171.958
 20
85.18075000000001
 30
0.0
 11
171.958
 21
58.08075
 31
0.0
  0
TEXT
  5
3EC
330
20
100
AcDbEntity
  8
2
  6
Continuous
 62
     4
100
AcDbText
 10
127.808
 20
60.08075
 30
0.3
 40
6.0
  1
８０
  7
KANJI9
100
AcDbText
  0
LINE
  5
3ED
330
20
100
AcDbEntity
  8
2
  6
Continuous
 62
     4
100
AcDbLine
 10
170.958
 20
164.18075
 30
0.3
 11
210.058
 21
164.18075
 31
0.3
  0
LINE
  5
3EE
330
20
100
AcDbEntity
  8
2
  6
Continuous
 62
     4
100
AcDbLine
 10
209.058
 20
164.18075
 30
0.0
 11
208.410952387
 21
161.765935434
 31
0.0
  0
LINE
  5
3EF
330
20
100
AcDbEntity
  8
2
  6
Continuous
 62
     4
100
AcDbLine
 10
209.058
 20
164.18075
 30
0.0
 11
209.705047613
 21
161.765935434
 31
0.0
  0
LINE
  5
3F0
330
20
100
AcDbEntity
  8
2
  6
Continuous
 62
     4
100
AcDbLine
 10
209.058
 20
164.18075
 30
0.0
 11
209.058
 21
84.18074999999999
 31
0.0
  0
LINE
  5
3F1
330
20
100
AcDbEntity
  8
2
  6
Continuous
 62
     4
100
AcDbLine
 10
209.058
 20
84.18074999999999
 30
0.0
 11
209.705047613
 21
86.595564566
 31
0.0
  0
LINE
  5
3F2
330
20
100
AcDbEntity
  8
2
  6
Continuous
 62
     4
100
AcDbLine
 10
209.058
 20
84.18074999999999
 30
0.0
 11
208.410952387
 21
86.595564566
 31
0.0
  0
LINE
  5
3F3
330
20
100
AcDbEntity
  8
2
  6
Continuous
 62
     4
100
AcDbLine
 10
170.958
 20
84.18074999999999
 30
0.0
 11
210.058
 21
84.18074999999999
 31
0.0
  0
TEXT
  5
3F4
330
20
100
AcDbEntity
  8
2
  6
Continuous
 62
     4
100
AcDbText
 10
208.058
 20
120.03075
 30
0.3
 40
6.0
  1
８０
 50
90.0
  7
KANJI9
100
AcDbText
  0
LINE
  5
3F5
330
20
100
AcDbEntity
  8
2
  6
Continuous
 62
     4
100
AcDbLine
 10
269.558
 20
165.18075
 30
0.3
 11
269.558
 21
179.18075
 31
0.3
  0
LINE
  5
3F6
330
20
100
AcDbEntity
  8
2
  6
Continuous
 62
     4
100
AcDbLine
 10
269.558
 20
178.18075
 30
0.0
 11
271.972814566
 21
177.533702387
 31
0.0
  0
LINE
  5
3F7
330
20
100
AcDbEntity
  8
2
  6
Continuous
 62
     4
100
AcDbLine
 10
269.558
 20
178.18075
 30
0.0
 11
271.972814566
 21
178.827797613
 31
0.0
  0
LINE
  5
3F8
330
20
100
AcDbEntity
  8
2
  6
Continuous
 62
     4
100
AcDbLine
 10
269.558
 20
178.18075
 30
0.0
 11
284.558
 21
178.18075
 31
0.0
  0
LINE
  5
3F9
330
20
100
AcDbEntity
  8
2
  6
Continuous
 62
     4
100
AcDbLine
 10
284.558
 20
178.18075
 30
0.0
 11
282.143185434
 21
178.827797613
 31
0.0
  0
LINE
  5
3FA
330
20
100
AcDbEntity
  8
2
  6
Continuous
 62
     4
100
AcDbLine
 10
284.558
 20
178.18075
 30
0.0
 11
282.143185434
 21
177.533702387
 31
0.0
  0
LINE
  5
3FB
330
20
100
AcDbEntity
  8
2
  6
Continuous
 62
     4
100
AcDbLine
 10
284.558
 20
158.28075
 30
0.0
 11
284.558
 21
179.18075
 31
0.0
  0
LINE
  5
3FC
330
20
100
AcDbEntity
  8
2
  6
Continuous
 62
     4
100
AcDbLine
 10
284.9579999999999
 20
157.68075
 30
0.0
 11
286.907460761
 21
159.24587068
 31
0.0
  0
LINE
  5
3FD
330
20
100
AcDbEntity
  8
2
  6
Continuous
 62
     4
100
AcDbLine
 10
284.9579999999999
 20
157.68075
 30
0.0
 11
285.863722203
 21
160.010914649
 31
0.0
  0
LINE
  5
3FE
330
20
100
AcDbEntity
  8
2
  6
Continuous
 62
     4
100
AcDbLine
 10
284.9579999999999
 20
157.68075
 30
0.0
 11
298.958
 21
176.78075
 31
0.0
  0
TEXT
  5
3FF
330
20
100
AcDbEntity
  8
2
  6
Continuous
 62
     4
100
AcDbText
 10
298.958
 20
177.78075
 30
0.3
 40
6.0
  1
Ｍ３
  7
KANJI9
100
AcDbText
  0
LINE
  5
400
330
20
100
AcDbEntity
  8
2
  6
Continuous
 62
     4
100
AcDbLine
 10
298.958
 20
176.78075
 30
0.3
 11
311.758
 21
176.78075
 31
0.3
  0
TEXT
  5
401
330
20
100
AcDbEntity
  8
2
  6
Continuous
 62
     4
100
AcDbText
 10
270.508
 20
179.18075
 30
0.3
 40
6.0
  1
１５
  7
KANJI9
100
AcDbText
  0
LINE
  5
402
330
20
100
AcDbEntity
  8
2
  6
Continuous
 62
     4
100
AcDbLine
 10
269.558
 20
83.18075
 30
0.3
 11
269.558
 21
58.18075
 31
0.3
  0
LINE
  5
403
330
20
100
AcDbEntity
  8
2
  6
Continuous
 62
     4
100
AcDbLine
 10
269.558
 20
59.18075
 30
0.0
 11
271.972814566
 21
58.533702387
 31
0.0
  0
LINE
  5
404
330
20
100
AcDbEntity
  8
2
  6
Continuous
 62
     4
100
AcDbLine
 10
269.558
 20
59.18075
 30
0.0
 11
271.972814566
 21
59.827797613
 31
0.0
  0
LINE
  5
405
330
20
100
AcDbEntity
  8
2
  6
Continuous
 62
     4
100
AcDbLine
 10
269.558
 20
59.18075
 30
0.0
 11
388.558
 21
59.18075
 31
0.0
  0
LINE
  5
406
330
20
100
AcDbEntity
  8
2
  6
Continuous
 62
     4
100
AcDbLine
 10
388.558
 20
59.18075
 30
0.0
 11
386.1431854340001
 21
59.827797613
 31
0.0
  0
LINE
  5
407
330
20
100
AcDbEntity
  8
2
  6
Continuous
 62
     4
100
AcDbLine
 10
388.558
 20
59.18075
 30
0.0
 11
386.1431854340001
 21
58.533702387
 31
0.0
  0
LINE
  5
408
330
20
100
AcDbEntity
  8
2
  6
Continuous
 62
     4
100
AcDbLine
 10
388.558
 20
95.68075
 30
0.0
 11
388.558
 21
58.18075
 31
0.0
  0
LINE
  5
409
330
20
100
AcDbEntity
  8
2
  6
Continuous
 62
     4
100
AcDbLine
 10
269.558
 20
59.18075
 30
0.0
 11
267.143185434
 21
59.827797613
 31
0.0
  0
LINE
  5
40A
330
20
100
AcDbEntity
  8
2
  6
Continuous
 62
     4
100
AcDbLine
 10
269.558
 20
59.18075
 30
0.0
 11
267.143185434
 21
58.533702387
 31
0.0
  0
LWPOLYLINE
  5
40B
330
20
100
AcDbEntity
  8
2
  6
Continuous
 62
     4
100
AcDbPolyline
 90
        3
 70
     0
 43
0.0
 10
269.558
 20
59.18075
 10
253.559124652
 20
59.18075
 10
255.973939218
 20
58.533702387
  0
LINE
  5
410
330
20
100
AcDbEntity
  8
2
  6
Continuous
 62
     4
100
AcDbLine
 10
253.559124652
 20
59.18075
 30
0.0
 11
255.973939218
 21
59.827797613
 31
0.0
  0
LINE
  5
411
330
20
100
AcDbEntity
  8
2
  6
Continuous
 62
     4
100
AcDbLine
 10
253.559124652
 20
123.18075
 30
0.0
 11
253.559124652
 21
58.18075
 31
0.0
  0
TEXT
  5
412
330
20
100
AcDbEntity
  8
2
  6
Continuous
 62
     4
100
AcDbText
 10
257.408562326
 20
60.18075
 30
0.3
 40
6.0
  1
１６
  7
KANJI9
100
AcDbText
  0
TEXT
  5
413
330
20
100
AcDbEntity
  8
2
  6
Continuous
 62
     4
100
AcDbText
 10
319.438
 20
60.18075
 30
0.3
 40
6.0
  1
１１９
  7
KANJI9
100
AcDbText
  0
TEXT
  5
414
330
20
100
AcDbEntity
  8
2
  6
Continuous
 62
     4
100
AcDbText
 10
339.138
 20
65.08074999999999
 30
0.36
 40
4.799999999999999
  1
±３
  7
KANJI10
100
AcDbText
  0
TEXT
  5
415
330
20
100
AcDbEntity
  8
2
  6
Continuous
 62
     4
100
AcDbText
 10
26.51674
 20
375.4918
 30
0.0
 40
8.039999999999999
  1
形　名　　：　ＮＲＷ－８０ＨＬ
 41
0.7174129350000001
  7
KANJI11
100
AcDbText
  0
LINE
  5
416
330
20
100
AcDbEntity
  8
2
  6
Continuous
 62
     4
100
AcDbLine
 10
174.358
 20
263.98075
 30
0.0
 11
185.258
 21
263.98075
 31
0.0
  0
LINE
  5
417
330
20
100
AcDbEntity
  8
2
  6
Continuous
 62
     4
100
AcDbLine
 10
184.258
 20
263.98075
 30
0.0
 11
184.905047613
 21
266.395564566
 31
0.0
  0
LINE
  5
418
330
20
100
AcDbEntity
  8
2
  6
Continuous
 62
     4
100
AcDbLine
 10
184.258
 20
263.98075
 30
0.0
 11
183.610952387
 21
266.395564566
 31
0.0
  0
LINE
  5
419
330
20
100
AcDbEntity
  8
2
  6
Continuous
 62
     4
100
AcDbLine
 10
184.258
 20
263.98075
 30
0.0
 11
184.258
 21
295.98075
 31
0.0
  0
LINE
  5
41A
330
20
100
AcDbEntity
  8
2
  6
Continuous
 62
     4
100
AcDbLine
 10
184.258
 20
295.98075
 30
0.0
 11
183.610952387
 21
293.565935434
 31
0.0
  0
LINE
  5
41B
330
20
100
AcDbEntity
  8
2
  6
Continuous
 62
     4
100
AcDbLine
 10
184.258
 20
295.98075
 30
0.0
 11
184.905047613
 21
293.565935434
 31
0.0
  0
LINE
  5
41C
330
20
100
AcDbEntity
  8
2
  6
Continuous
 62
     4
100
AcDbLine
 10
172.158
 20
295.98075
 30
0.0
 11
185.258
 21
295.98075
 31
0.0
  0
LINE
  5
41D
330
20
100
AcDbEntity
  8
2
  6
Continuous
 62
     4
100
AcDbLine
 10
184.258
 20
263.98075
 30
0.0
 11
183.610952387
 21
261.565935434
 31
0.0
  0
LINE
  5
41E
330
20
100
AcDbEntity
  8
2
  6
Continuous
 62
     4
100
AcDbLine
 10
184.258
 20
263.98075
 30
0.0
 11
184.905047613
 21
261.565935434
 31
0.0
  0
LWPOLYLINE
  5
41F
330
20
100
AcDbEntity
  8
2
  6
Continuous
 62
     4
100
AcDbPolyline
 90
        3
 70
     0
 43
0.0
 10
184.258
 20
263.98075
 10
184.258
 20
231.98075
 10
184.905047613
 20
234.395564566
  0
LINE
  5
424
330
20
100
AcDbEntity
  8
2
  6
Continuous
 62
     4
100
AcDbLine
 10
184.258
 20
231.98075
 30
0.0
 11
183.610952387
 21
234.395564566
 31
0.0
  0
LINE
  5
425
330
20
100
AcDbEntity
  8
2
  6
Continuous
 62
     4
100
AcDbLine
 10
172.158
 20
231.98075
 30
0.0
 11
185.258
 21
231.98075
 31
0.0
  0
LINE
  5
426
330
20
100
AcDbEntity
  8
2
  6
Continuous
 62
     4
100
AcDbLine
 10
104.858
 20
230.08075
 30
0.0
 11
105.214511462
 21
227.606300652
 31
0.0
  0
LINE
  5
427
330
20
100
AcDbEntity
  8
2
  6
Continuous
 62
     4
100
AcDbLine
 10
104.858
 20
230.08075
 30
0.0
 11
106.403972657
 21
228.116069735
 31
0.0
  0
LINE
  5
428
330
20
100
AcDbEntity
  8
2
  6
Continuous
 62
     4
100
AcDbLine
 10
104.858
 20
230.08075
 30
0.0
 11
113.258
 21
210.48075
 31
0.0
  0
TEXT
  5
429
330
20
100
AcDbEntity
  8
2
  6
Continuous
 62
     4
100
AcDbText
 10
183.258
 20
275.83075
 30
0.3
 40
6.0
  1
３２
 50
90.0
  7
KANJI9
100
AcDbText
  0
TEXT
  5
42A
330
20
100
AcDbEntity
  8
2
  6
Continuous
 62
     4
100
AcDbText
 10
183.258
 20
243.83075
 30
0.3
 40
6.0
  1
３２
 50
90.0
  7
KANJI9
100
AcDbText
  0
TEXT
  5
42B
330
20
100
AcDbEntity
  8
2
  6
Continuous
 62
     4
100
AcDbText
 10
113.258
 20
211.48075
 30
0.3
 40
6.0
  1
４－φ４
  7
KANJI9
100
AcDbText
  0
LINE
  5
42C
330
20
100
AcDbEntity
  8
2
  6
Continuous
 62
     4
100
AcDbLine
 10
113.258
 20
210.48075
 30
0.3
 11
137.658
 21
210.48075
 31
0.3
  0
LINE
  5
42D
330
20
100
AcDbEntity
  8
2
  6
Continuous
 62
     4
100
AcDbLine
 10
166.620231031
 20
282.347574701
 30
0.0
 11
164.213223904
 21
281.67206253
 31
0.0
  0
LINE
  5
42E
330
20
100
AcDbEntity
  8
2
  6
Continuous
 62
     4
100
AcDbLine
 10
166.620231031
 20
282.347574701
 30
0.0
 11
164.873457798
 21
280.559060437
 31
0.0
  0
LWPOLYLINE
  5
42F
330
20
100
AcDbEntity
  8
2
  6
Continuous
 62
     4
100
AcDbPolyline
 90
        3
 70
     0
 43
0.0
 10
166.620231031
 20
282.347574701
 10
104.695768969
 20
245.613925299
 10
107.102776096
 20
246.28943747
  0
LINE
  5
434
330
20
100
AcDbEntity
  8
2
  6
Continuous
 62
     4
100
AcDbLine
 10
104.695768969
 20
245.613925299
 30
0.0
 11
106.442542202
 21
247.402439563
 31
0.0
  0
TEXT
  5
435
330
20
100
AcDbEntity
  8
2
  6
Continuous
 62
     4
100
AcDbText
 10
141.032162123
 20
268.276701637
 30
0.39
 40
5.2
  1
φ７２
 50
30.676458063
  7
KANJI12
100
AcDbText
  0
TEXT
  5
436
330
20
100
AcDbEntity
  8
2
  6
Continuous
 62
     4
100
AcDbText
 10
109.278
 20
331.26075
 30
2.351999999999999
 40
6.36
  1
パネルカット
  7
KANJI13
100
AcDbText
  0
LINE
  5
437
330
20
100
AcDbEntity
  8
2
  6
Continuous
 62
     4
100
AcDbLine
 10
135.658
 20
302.38075
 30
2.351999999999999
 11
135.658
 21
317.38075
 31
2.351999999999999
  0
LINE
  5
438
330
20
100
AcDbEntity
  8
2
  6
Continuous
 62
     4
100
AcDbLine
 10
135.658
 20
316.38075
 30
0.0
 11
138.072814566
 21
315.733702387
 31
0.0
  0
LINE
  5
439
330
20
100
AcDbEntity
  8
2
  6
Continuous
 62
     4
100
AcDbLine
 10
135.658
 20
316.38075
 30
0.0
 11
138.072814566
 21
317.027797613
 31
0.0
  0
LINE
  5
43A
330
20
100
AcDbEntity
  8
2
  6
Continuous
 62
     4
100
AcDbLine
 10
135.658
 20
316.38075
 30
0.0
 11
167.658
 21
316.38075
 31
0.0
  0
LINE
  5
43B
330
20
100
AcDbEntity
  8
2
  6
Continuous
 62
     4
100
AcDbLine
 10
167.658
 20
316.38075
 30
0.0
 11
165.243185434
 21
317.027797613
 31
0.0
  0
LINE
  5
43C
330
20
100
AcDbEntity
  8
2
  6
Continuous
 62
     4
100
AcDbLine
 10
167.658
 20
316.38075
 30
0.0
 11
165.243185434
 21
315.733702387
 31
0.0
  0
LINE
  5
43D
330
20
100
AcDbEntity
  8
2
  6
Continuous
 62
     4
100
AcDbLine
 10
167.658
 20
300.48075
 30
0.0
 11
167.658
 21
317.38075
 31
0.0
  0
LINE
  5
43E
330
20
100
AcDbEntity
  8
2
  6
Continuous
 62
     4
100
AcDbLine
 10
135.658
 20
316.38075
 30
0.0
 11
133.243185434
 21
317.027797613
 31
0.0
  0
LINE
  5
43F
330
20
100
AcDbEntity
  8
2
  6
Continuous
 62
     4
100
AcDbLine
 10
135.658
 20
316.38075
 30
0.0
 11
133.243185434
 21
315.733702387
 31
0.0
  0
LWPOLYLINE
  5
440
330
20
100
AcDbEntity
  8
2
  6
Continuous
 62
     4
100
AcDbPolyline
 90
        3
 70
     0
 43
0.0
 10
135.658
 20
316.38075
 10
103.658
 20
316.38075
 10
106.072814566
 20
315.733702387
  0
LINE
  5
445
330
20
100
AcDbEntity
  8
2
  6
Continuous
 62
     4
100
AcDbLine
 10
103.658
 20
316.38075
 30
0.0
 11
106.072814566
 21
317.027797613
 31
0.0
  0
LINE
  5
446
330
20
100
AcDbEntity
  8
2
  6
Continuous
 62
     4
100
AcDbLine
 10
103.658
 20
300.48075
 30
0.0
 11
103.658
 21
317.38075
 31
0.0
  0
TEXT
  5
447
330
20
100
AcDbEntity
  8
2
  6
Continuous
 62
     4
100
AcDbText
 10
147.508
 20
317.38075
 30
0.3
 40
6.0
  1
３２
  7
KANJI9
100
AcDbText
  0
TEXT
  5
448
330
20
100
AcDbEntity
  8
2
  6
Continuous
 62
     4
100
AcDbText
 10
115.508
 20
317.38075
 30
0.3
 40
6.0
  1
３２
  7
KANJI9
100
AcDbText
  0
ENDSEC
  0
SECTION
  2
OBJECTS
  0
DICTIONARY
  5
C
330
0
100
AcDbDictionary
281
     1
  3
ACAD_COLOR
350
1B
  3
ACAD_GROUP
350
D
  3
ACAD_LAYOUT
350
19
  3
ACAD_MATERIAL
350
1A
  3
ACAD_MLINESTYLE
350
16
  3
ACAD_PLOTSETTINGS
350
18
  3
ACAD_PLOTSTYLENAME
350
E
  3
ACDBHEADERROUNDTRIPXREC
350
44F
  3
AcDbVariableDictionary
350
44B
  0
DICTIONARY
  5
1B
102
{ACAD_REACTORS
330
C
102
}
330
C
100
AcDbDictionary
281
     1
  0
DICTIONARY
  5
D
102
{ACAD_REACTORS
330
C
102
}
330
C
100
AcDbDictionary
281
     1
  0
DICTIONARY
  5
19
102
{ACAD_REACTORS
330
C
102
}
330
C
100
AcDbDictionary
281
     1
  3
Model
350
23
  3
レイアウト1
350
1F
  0
DICTIONARY
  5
1A
102
{ACAD_REACTORS
330
C
102
}
330
C
100
AcDbDictionary
281
     1
  0
DICTIONARY
  5
16
102
{ACAD_REACTORS
330
C
102
}
330
C
100
AcDbDictionary
281
     1
  3
Standard
350
17
  0
DICTIONARY
  5
18
102
{ACAD_REACTORS
330
C
102
}
330
C
100
AcDbDictionary
281
     1
  0
ACDBDICTIONARYWDFLT
  5
E
102
{ACAD_REACTORS
330
C
102
}
330
C
100
AcDbDictionary
281
     1
  3
Normal
350
F
100
AcDbDictionaryWithDefault
340
F
  0
DICTIONARY
  5
44F
102
{ACAD_REACTORS
330
C
102
}
330
C
100
AcDbDictionary
281
     1
  3
COLORDICT
350
451
  3
MATERIALDICT
350
450
  0
DICTIONARY
  5
44B
102
{ACAD_REACTORS
330
C
102
}
330
C
100
AcDbDictionary
281
     1
  3
DIMASSOC
350
44C
  3
PROJECTNAME
350
44D
  0
LAYOUT
  5
23
102
{ACAD_XDICTIONARY
360
454
102
}
102
{ACAD_REACTORS
330
19
102
}
330
19
100
AcDbPlotSettings
  1

  2
hp psc 2500 series
  4

  6

 40
0.0
 41
0.0
 42
0.0
 43
0.0
 44
0.0
 45
0.0
 46
0.0
 47
0.0
 48
0.0
 49
0.0
140
0.0
141
0.0
142
1.0
143
1.0
 70
  1712
 72
     0
 73
     0
 74
     0
  7

 75
     0
147
1.0
148
0.0
149
0.0
100
AcDbLayout
  1
Model
 70
     1
 71
     0
 10
0.0
 20
0.0
 11
12.0
 21
9.0
 12
0.0
 22
0.0
 32
0.0
 14
0.0
 24
0.0
 34
0.0
 15
0.0
 25
0.0
 35
0.0
146
0.0
 13
0.0
 23
0.0
 33
0.0
 16
1.0
 26
0.0
 36
0.0
 17
0.0
 27
1.0
 37
0.0
 76
     0
330
20
  0
LAYOUT
  5
1F
102
{ACAD_XDICTIONARY
360
452
102
}
102
{ACAD_REACTORS
330
19
102
}
330
19
100
AcDbPlotSettings
  1

  2
hp psc 2500 series
  4

  6

 40
0.0
 41
0.0
 42
0.0
 43
0.0
 44
0.0
 45
0.0
 46
0.0
 47
0.0
 48
0.0
 49
0.0
140
0.0
141
0.0
142
1.0
143
1.0
 70
   688
 72
     0
 73
     0
 74
     5
  7

 75
    16
147
1.0
148
0.0
149
0.0
100
AcDbLayout
  1
レイアウト1
 70
     1
 71
     1
 10
0.0
 20
0.0
 11
12.0
 21
9.0
 12
0.0
 22
0.0
 32
0.0
 14
1.000000000000000E+20
 24
1.000000000000000E+20
 34
1.000000000000000E+20
 15
-1.000000000000000E+20
 25
-1.000000000000000E+20
 35
-1.000000000000000E+20
146
0.0
 13
0.0
 23
0.0
 33
0.0
 16
1.0
 26
0.0
 36
0.0
 17
0.0
 27
1.0
 37
0.0
 76
     0
330
1C
  0
MLINESTYLE
  5
17
102
{ACAD_REACTORS
330
16
102
}
330
16
100
AcDbMlineStyle
  2
STANDARD
 70
     0
  3

 62
   256
 51
90.0
 52
90.0
 71
     2
 49
0.5
 62
   256
  6
BYLAYER
 49
-0.5
 62
   256
  6
BYLAYER
  0
ACDBPLACEHOLDER
  5
F
102
{ACAD_REACTORS
330
E
102
}
330
E
  0
XRECORD
  5
451
102
{ACAD_REACTORS
330
44F
102
}
330
44F
100
AcDbXrecord
280
     1
340
1B
  0
XRECORD
  5
450
102
{ACAD_REACTORS
330
44F
102
}
330
44F
100
AcDbXrecord
280
     1
340
1A
  0
DICTIONARYVAR
  5
44C
102
{ACAD_REACTORS
330
44B
102
}
330
44B
100
DictionaryVariables
280
     0
  1
1
  0
DICTIONARYVAR
  5
44D
102
{ACAD_REACTORS
330
44B
102
}
330
44B
100
DictionaryVariables
280
     0
  1

  0
DICTIONARY
  5
454
330
23
100
AcDbDictionary
280
     1
281
     1
  3
ACAD_XREC_ROUNDTRIP
360
455
  0
DICTIONARY
  5
452
330
1F
100
AcDbDictionary
280
     1
281
     1
  3
ACAD_XREC_ROUNDTRIP
360
453
  0
XRECORD
  5
455
102
{ACAD_REACTORS
330
454
102
}
330
454
100
AcDbXrecord
280
     1
102
SHADEPLOT
 70
     0
102
SHADEPLOTRESLEVEL
 70
     2
102
SHADEPLOTCUSTOMDPI
 70
   300
  0
XRECORD
  5
453
102
{ACAD_REACTORS
330
452
102
}
330
452
100
AcDbXrecord
280
     1
102
SHADEPLOT
 70
     0
102
SHADEPLOTRESLEVEL
 70
     2
102
SHADEPLOTCUSTOMDPI
 70
   300
  0
ENDSEC
  0
EOF
